  0
SECTION
  2
HEADER
  9
$ACADVER
  1
AC1021
  9
$ACADMAINTVER
 70
    25
  9
$DWGCODEPAGE
  3
ANSI_1252
  9
$COMMENTS
  1
Chief Architect X2; Version 12.6.0.25; Chief Architect, Inc.; 2009
  9
$INSBASE
 10
0.0
 20
0.0
 30
0.0
  9
$EXTMIN
 10
0.0
 20
1.0
 30
0.0
  9
$EXTMAX
 10
1.0
 20
0.0
 30
0.0
  9
$LIMMIN
 10
0.0
 20
0.0
  9
$LIMMAX
 10
12.0
 20
9.0
  9
$ORTHOMODE
 70
     0
  9
$REGENMODE
 70
     1
  9
$FILLMODE
 70
     1
  9
$QTEXTMODE
 70
     0
  9
$MIRRTEXT
 70
     1
  9
$LTSCALE
 40
96.0
  9
$ATTMODE
 70
     1
  9
$TEXTSIZE
 40
0.2
  9
$TRACEWID
 40
0.05
  9
$TEXTSTYLE
  7
Standard
  9
$CLAYER
  8
0
  9
$CELTYPE
  6
ByLayer
  9
$CECOLOR
 62
   256
  9
$CELTSCALE
 40
1.0
  9
$DISPSILH
 70
     0
  9
$DIMSCALE
 40
1.0
  9
$DIMASZ
 40
5.0
  9
$DIMEXO
 40
3.0
  9
$DIMDLI
 40
0.38
  9
$DIMRND
 40
0.0
  9
$DIMDLE
 40
0.0
  9
$DIMEXE
 40
3.0
  9
$DIMTP
 40
0.0
  9
$DIMTM
 40
0.0
  9
$DIMTXT
 40
6.0
  9
$DIMCEN
 40
0.09
  9
$DIMTSZ
 40
0.0
  9
$DIMTOL
 70
     0
  9
$DIMLIM
 70
     0
  9
$DIMTIH
 70
     0
  9
$DIMTOH
 70
     0
  9
$DIMSE1
 70
     0
  9
$DIMSE2
 70
     0
  9
$DIMTAD
 70
     0
  9
$DIMZIN
 70
     0
  9
$DIMBLK
  1

  9
$DIMASO
 70
     1
  9
$DIMSHO
 70
     1
  9
$DIMPOST
  1

  9
$DIMAPOST
  1

  9
$DIMALT
 70
     0
  9
$DIMALTD
 70
     0
  9
$DIMALTF
 40
1.0
  9
$DIMLFAC
 40
1.0
  9
$DIMTOFL
 70
     0
  9
$DIMTVP
 40
0.0
  9
$DIMTIX
 70
     0
  9
$DIMSOXD
 70
     0
  9
$DIMSAH
 70
     0
  9
$DIMBLK1
  1

  9
$DIMBLK2
  1

  9
$DIMSTYLE
  2
Standard
  9
$DIMCLRD
 70
     0
  9
$DIMCLRE
 70
     0
  9
$DIMCLRT
 70
     0
  9
$DIMTFAC
 40
1.0
  9
$DIMGAP
 40
0.5
  9
$DIMJUST
 70
     0
  9
$DIMSD1
 70
     0
  9
$DIMSD2
 70
     0
  9
$DIMTOLJ
 70
     1
  9
$DIMTZIN
 70
     0
  9
$DIMALTZ
 70
    12
  9
$DIMALTTZ
 70
     0
  9
$DIMUPT
 70
     0
  9
$DIMDEC
 70
     4
  9
$DIMTDEC
 70
     4
  9
$DIMALTU
 70
     2
  9
$DIMALTTD
 70
     2
  9
$DIMTXSTY
  7
Standard
  9
$DIMAUNIT
 70
     0
  9
$DIMADEC
 70
     0
  9
$DIMALTRND
 40
0.0
  9
$DIMAZIN
 70
     0
  9
$DIMDSEP
 70
    46
  9
$DIMATFIT
 70
     3
  9
$DIMFRAC
 70
     2
  9
$DIMLDRBLK
  1

  9
$DIMLUNIT
 70
     4
  9
$DIMLWD
 70
    -2
  9
$DIMLWE
 70
    -2
  9
$DIMTMOVE
 70
     0
  9
$DIMFXL
 40
3.0
  9
$DIMFXLON
 70
     0
  9
$DIMJOGANG
 40
0.7853981633974483
  9
$DIMTFILL
 70
     0
  9
$DIMTFILLCLR
 70
     0
  9
$DIMARCSYM
 70
     0
  9
$DIMLTYPE
  6

  9
$DIMLTEX1
  6

  9
$DIMLTEX2
  6

  9
$LUNITS
 70
     2
  9
$LUPREC
 70
     4
  9
$SKETCHINC
 40
0.1
  9
$FILLETRAD
 40
0.5
  9
$AUNITS
 70
     0
  9
$AUPREC
 70
     0
  9
$MENU
  1
.
  9
$ELEVATION
 40
0.0
  9
$PELEVATION
 40
0.0
  9
$THICKNESS
 40
0.0
  9
$LIMCHECK
 70
     0
  9
$CHAMFERA
 40
0.5
  9
$CHAMFERB
 40
0.5
  9
$CHAMFERC
 40
1.0
  9
$CHAMFERD
 40
0.0
  9
$SKPOLY
 70
     0
  9
$TDCREATE
 40
2455498.515561782
  9
$TDUCREATE
 40
2455498.723895116
  9
$TDUPDATE
 40
2455498.515561794
  9
$TDUUPDATE
 40
2455498.723895127
  9
$TDINDWG
 40
0.0000000116
  9
$TDUSRTIMER
 40
0.0000000116
  9
$USRTIMER
 70
     1
  9
$ANGBASE
 50
0.0
  9
$ANGDIR
 70
     0
  9
$PDMODE
 70
     0
  9
$PDSIZE
 40
0.0
  9
$PLINEWID
 40
0.0
  9
$SPLFRAME
 70
     0
  9
$SPLINETYPE
 70
     6
  9
$SPLINESEGS
 70
     8
  9
$HANDSEED
  5
40A
  9
$SURFTAB1
 70
     6
  9
$SURFTAB2
 70
     6
  9
$SURFTYPE
 70
     6
  9
$SURFU
 70
     6
  9
$SURFV
 70
     6
  9
$UCSBASE
  2

  9
$UCSNAME
  2

  9
$UCSORG
 10
0.0
 20
0.0
 30
0.0
  9
$UCSXDIR
 10
1.0
 20
0.0
 30
0.0
  9
$UCSYDIR
 10
0.0
 20
1.0
 30
0.0
  9
$UCSORTHOREF
  2

  9
$UCSORTHOVIEW
 70
     0
  9
$UCSORGTOP
 10
0.0
 20
0.0
 30
0.0
  9
$UCSORGBOTTOM
 10
0.0
 20
0.0
 30
0.0
  9
$UCSORGLEFT
 10
0.0
 20
0.0
 30
0.0
  9
$UCSORGRIGHT
 10
0.0
 20
0.0
 30
0.0
  9
$UCSORGFRONT
 10
0.0
 20
0.0
 30
0.0
  9
$UCSORGBACK
 10
0.0
 20
0.0
 30
0.0
  9
$PUCSBASE
  2

  9
$PUCSNAME
  2

  9
$PUCSORG
 10
0.0
 20
0.0
 30
0.0
  9
$PUCSXDIR
 10
1.0
 20
0.0
 30
0.0
  9
$PUCSYDIR
 10
0.0
 20
1.0
 30
0.0
  9
$PUCSORTHOREF
  2

  9
$PUCSORTHOVIEW
 70
     0
  9
$PUCSORGTOP
 10
0.0
 20
0.0
 30
0.0
  9
$PUCSORGBOTTOM
 10
0.0
 20
0.0
 30
0.0
  9
$PUCSORGLEFT
 10
0.0
 20
0.0
 30
0.0
  9
$PUCSORGRIGHT
 10
0.0
 20
0.0
 30
0.0
  9
$PUCSORGFRONT
 10
0.0
 20
0.0
 30
0.0
  9
$PUCSORGBACK
 10
0.0
 20
0.0
 30
0.0
  9
$USERI1
 70
     0
  9
$USERI2
 70
     0
  9
$USERI3
 70
     0
  9
$USERI4
 70
     0
  9
$USERI5
 70
     0
  9
$USERR1
 40
0.0
  9
$USERR2
 40
0.0
  9
$USERR3
 40
0.0
  9
$USERR4
 40
0.0
  9
$USERR5
 40
0.0
  9
$WORLDVIEW
 70
     1
  9
$SHADEDGE
 70
     3
  9
$SHADEDIF
 70
    70
  9
$TILEMODE
 70
     1
  9
$MAXACTVP
 70
    64
  9
$PINSBASE
 10
0.0
 20
0.0
 30
0.0
  9
$PLIMCHECK
 70
     0
  9
$PEXTMIN
 10
1.000000000000000E+20
 20
1.000000000000000E+20
 30
1.000000000000000E+20
  9
$PEXTMAX
 10
-1.000000000000000E+20
 20
-1.000000000000000E+20
 30
-1.000000000000000E+20
  9
$PLIMMIN
 10
0.0
 20
0.0
  9
$PLIMMAX
 10
12.0
 20
9.0
  9
$UNITMODE
 70
     0
  9
$VISRETAIN
 70
     1
  9
$PLINEGEN
 70
     0
  9
$PSLTSCALE
 70
     1
  9
$TREEDEPTH
 70
  3020
  9
$CMLSTYLE
  2
Standard
  9
$CMLJUST
 70
     0
  9
$CMLSCALE
 40
1.0
  9
$PROXYGRAPHICS
 70
     1
  9
$MEASUREMENT
 70
     0
  9
$CELWEIGHT
370
    -1
  9
$ENDCAPS
280
     0
  9
$JOINSTYLE
280
     0
  9
$LWDISPLAY
290
     0
  9
$INSUNITS
 70
     1
  9
$HYPERLINKBASE
  1

  9
$STYLESHEET
  1

  9
$XEDIT
290
     1
  9
$CEPSNTYPE
380
     0
  9
$PSTYLEMODE
290
     1
  9
$FINGERPRINTGUID
  2
{AF2FDA9E-B33E-4A63-9A06-8853CD032205}
  9
$VERSIONGUID
  2
{FAEB1C32-E019-11D5-929B-00C0DF256EC4}
  9
$EXTNAMES
290
     1
  9
$PSVPSCALE
 40
0.0
  9
$OLESTARTUP
290
     0
  9
$SORTENTS
280
   127
  9
$INDEXCTL
280
     0
  9
$HIDETEXT
280
     1
  9
$XCLIPFRAME
290
     0
  9
$HALOGAP
280
     0
  9
$OBSCOLOR
 70
   257
  9
$OBSLTYPE
280
     0
  9
$INTERSECTIONDISPLAY
280
     0
  9
$INTERSECTIONCOLOR
 70
   257
  9
$DIMASSOC
280
     2
  9
$PROJECTNAME
  1

  9
$CAMERADISPLAY
290
     0
  9
$LENSLENGTH
 40
50.0
  9
$CAMERAHEIGHT
 40
0.0
  9
$STEPSPERSEC
 40
2.0
  9
$STEPSIZE
 40
6.0
  9
$3DDWFPREC
 40
2.0
  9
$PSOLWIDTH
 40
0.25
  9
$PSOLHEIGHT
 40
4.0
  9
$LOFTANG1
 40
1.570796326794897
  9
$LOFTANG2
 40
1.570796326794897
  9
$LOFTMAG1
 40
0.0
  9
$LOFTMAG2
 40
0.0
  9
$LOFTPARAM
 70
     7
  9
$LOFTNORMALS
280
     1
  9
$LATITUDE
 40
37.795
  9
$LONGITUDE
 40
-122.394
  9
$NORTHDIRECTION
 40
0.0
  9
$TIMEZONE
 70
 -8000
  9
$LIGHTGLYPHDISPLAY
280
     1
  9
$TILEMODELIGHTSYNCH
280
     1
  9
$SOLIDHIST
280
     1
  9
$SHOWHIST
280
     1
  9
$DWFFRAME
280
     2
  9
$DGNFRAME
280
     2
  9
$REALWORLDSCALE
290
     1
  9
$INTERFERECOLOR
 62
   256
  9
$CSHADOW
280
     0
  9
$SHADOWPLANELOCATION
 40
0.0
  0
ENDSEC
  0
SECTION
  2
CLASSES
  0
CLASS
  1
ACDBDICTIONARYWDFLT
  2
AcDbDictionaryWithDefault
  3
ObjectDBX Classes
 90
        0
 91
        4
280
     0
281
     0
  0
CLASS
  1
VISUALSTYLE
  2
AcDbVisualStyle
  3
ObjectDBX Classes
 90
     4095
 91
        4
280
     0
281
     0
  0
ENDSEC
  0
SECTION
  2
TABLES
  0
TABLE
  2
VPORT
  5
8
330
0
100
AcDbSymbolTable
 70
     1
  0
VPORT
  5
29
330
8
100
AcDbSymbolTableRecord
100
AcDbViewportTableRecord
  2
*Active
 70
     0
 10
0.0
 20
0.0
 11
1.0
 21
1.0
 12
10.42990654205607
 22
4.5
 13
0.0
 23
0.0
 14
0.5
 24
0.5
 15
0.5
 25
0.5
 16
0.0
 26
0.0
 36
1.0
 17
0.0
 27
0.0
 37
0.0
 40
9.0
 41
1.972972972850329
 42
50.0
 43
0.0
 44
0.0
 50
0.0
 51
0.0
 71
     0
 72
   100
 73
     1
 74
     3
 75
     0
 76
     0
 77
     0
 78
     0
281
     0
 65
     1
110
0.0
120
0.0
130
0.0
111
1.0
121
0.0
131
0.0
112
0.0
122
1.0
132
0.0
 79
     0
146
0.0
 60
     3
 61
     5
292
     1
282
     1
141
0.0
142
0.0
 63
   250
  0
ENDTAB
  0
TABLE
  2
LTYPE
  5
5
330
0
100
AcDbSymbolTable
 70
     2
  0
LTYPE
  5
14
330
5
100
AcDbSymbolTableRecord
100
AcDbLinetypeTableRecord
  2
ByBlock
 70
     0
  3

 72
    65
 73
     0
 40
0.0
  0
LTYPE
  5
15
330
5
100
AcDbSymbolTableRecord
100
AcDbLinetypeTableRecord
  2
ByLayer
 70
     0
  3

 72
    65
 73
     0
 40
0.0
  0
LTYPE
  5
16
330
5
100
AcDbSymbolTableRecord
100
AcDbLinetypeTableRecord
  2
Continuous
 70
     0
  3
Solid line
 72
    65
 73
     0
 40
0.0
  0
LTYPE
  5
2BA
330
5
100
AcDbSymbolTableRecord
100
AcDbLinetypeTableRecord
  2
ISO08W100
 70
     0
  3
ISO08W100 LINE
 72
    65
 73
     4
 40
0.96
 49
0.48
 74
     0
 49
-0.12
 74
     0
 49
0.24
 74
     0
 49
-0.12
 74
     0
  0
ENDTAB
  0
TABLE
  2
LAYER
  5
2
330
0
100
AcDbSymbolTable
 70
     4
  0
LAYER
  5
10
330
2
100
AcDbSymbolTableRecord
100
AcDbLayerTableRecord
  2
0
 70
     0
 62
     7
  6
Continuous
370
    -3
390
F
347
0
  0
LAYER
  5
3C
330
2
100
AcDbSymbolTableRecord
100
AcDbLayerTableRecord
  2
_DEFAULT_CAD_LAYER
 70
     0
 62
     7
  6
Continuous
370
    18
390
F
347
0
  0
LAYER
  5
2BC
330
2
100
AcDbSymbolTableRecord
100
AcDbLayerTableRecord
  2
Text
 70
     0
 62
   156
  6
Continuous
370
     9
390
F
347
0
1001
CHIEFARC-LNWT
1070
    10
  0
ENDTAB
  0
TABLE
  2
STYLE
  5
3
330
0
100
AcDbSymbolTable
 70
     1
  0
STYLE
  5
11
330
3
100
AcDbSymbolTableRecord
100
AcDbTextStyleTableRecord
  2
Standard
 70
     0
 40
0.0
 41
1.0
 50
0.0
 71
     0
 42
0.2
  3
txt
  4

  0
ENDTAB
  0
TABLE
  2
VIEW
  5
6
330
0
100
AcDbSymbolTable
 70
     0
  0
ENDTAB
  0
TABLE
  2
UCS
  5
7
330
0
100
AcDbSymbolTable
 70
     0
  0
ENDTAB
  0
TABLE
  2
APPID
  5
9
330
0
100
AcDbSymbolTable
 70
     7
  0
APPID
  5
12
330
9
100
AcDbSymbolTableRecord
100
AcDbRegAppTableRecord
  2
ACAD
 70
     0
  0
APPID
  5
8B
330
9
100
AcDbSymbolTableRecord
100
AcDbRegAppTableRecord
  2
CHIEFARC-LNWT
 70
     0
  0
APPID
  5
2C1
330
9
100
AcDbSymbolTableRecord
100
AcDbRegAppTableRecord
  2
CHIEFARC_RTFBINARY
 70
     0
  0
APPID
  5
2C2
330
9
100
AcDbSymbolTableRecord
100
AcDbRegAppTableRecord
  2
CHIEFARC_SIMPLE_TEXT_BINARY
 70
     0
  0
APPID
  5
2C3
330
9
100
AcDbSymbolTableRecord
100
AcDbRegAppTableRecord
  2
CHIEFARC_AUTOHEIGHT
 70
     0
  0
APPID
  5
2C4
330
9
100
AcDbSymbolTableRecord
100
AcDbRegAppTableRecord
  2
CHIEFARC_AUTOWIDTH
 70
     0
  0
APPID
  5
2C7
330
9
100
AcDbSymbolTableRecord
100
AcDbRegAppTableRecord
  2
CHIEFARC-WIDTHEXPANDED
 70
     0
  0
ENDTAB
  0
TABLE
  2
DIMSTYLE
  5
A
330
0
100
AcDbSymbolTable
 70
     2
100
AcDbDimStyleTable
  0
DIMSTYLE
105
27
330
A
100
AcDbSymbolTableRecord
100
AcDbDimStyleTableRecord
  2
Standard
 70
     0
340
11
  0
DIMSTYLE
105
3B
330
A
100
AcDbSymbolTableRecord
100
AcDbDimStyleTableRecord
  2
CHIEF
 70
     0
 41
5.0
 42
3.0
 44
3.0
 49
3.0
 73
     0
 74
     0
140
6.0
143
1.0
147
0.5
171
     0
276
     2
277
     4
285
    12
340
11
  0
ENDTAB
  0
TABLE
  2
BLOCK_RECORD
  5
1
330
0
100
AcDbSymbolTable
 70
     8
  0
BLOCK_RECORD
  5
1F
330
1
100
AcDbSymbolTableRecord
100
AcDbBlockTableRecord
  2
*Model_Space
340
22
 70
     0
280
     1
281
     0
  0
BLOCK_RECORD
  5
1B
330
1
100
AcDbSymbolTableRecord
100
AcDbBlockTableRecord
  2
*Paper_Space
340
1E
 70
     0
280
     1
281
     0
  0
BLOCK_RECORD
  5
23
330
1
100
AcDbSymbolTableRecord
100
AcDbBlockTableRecord
  2
*Paper_Space0
340
26
 70
     0
280
     1
281
     0
  0
BLOCK_RECORD
  5
86
330
1
100
AcDbSymbolTableRecord
100
AcDbBlockTableRecord
  2
block9_0
340
0
102
{BLKREFS
331
8C
331
13A
102
}
 70
     0
280
     1
281
     0
  0
BLOCK_RECORD
  5
13B
330
1
100
AcDbSymbolTableRecord
100
AcDbBlockTableRecord
  2
block59_1
340
0
102
{BLKREFS
331
149
331
14C
331
14D
331
157
331
158
331
159
331
1AA
331
1AB
331
1AC
331
1AD
331
1AE
102
}
 70
     0
280
     1
281
     0
  0
BLOCK_RECORD
  5
15A
330
1
100
AcDbSymbolTableRecord
100
AcDbBlockTableRecord
  2
block48
340
0
102
{BLKREFS
331
1A9
102
}
 70
     0
280
     1
281
     0
  0
BLOCK_RECORD
  5
2DC
330
1
100
AcDbSymbolTableRecord
100
AcDbBlockTableRecord
  2
block35
340
0
102
{BLKREFS
331
351
102
}
 70
     0
280
     1
281
     0
  0
BLOCK_RECORD
  5
2DD
330
1
100
AcDbSymbolTableRecord
100
AcDbBlockTableRecord
  2
block33_1
340
0
102
{BLKREFS
331
34D
102
}
 70
     0
280
     1
281
     0
  0
BLOCK_RECORD
  5
370
330
1
100
AcDbSymbolTableRecord
100
AcDbBlockTableRecord
  2
block34_1
340
0
102
{BLKREFS
331
37F
331
3FF
331
407
102
}
 70
     0
280
     1
281
     0
  0
BLOCK_RECORD
  5
378
330
1
100
AcDbSymbolTableRecord
100
AcDbBlockTableRecord
  2
Break_Line
340
0
102
{BLKREFS
331
37C
102
}
 70
     0
280
     1
281
     0
  0
ENDTAB
  0
ENDSEC
  0
SECTION
  2
BLOCKS
  0
BLOCK
  5
20
330
1F
100
AcDbEntity
  8
0
100
AcDbBlockBegin
  2
*Model_Space
 70
     0
 10
0.0
 20
0.0
 30
0.0
  3
*Model_Space
  1

  0
ENDBLK
  5
21
330
1F
100
AcDbEntity
  8
0
100
AcDbBlockEnd
  0
BLOCK
  5
1C
330
1B
100
AcDbEntity
 67
     1
  8
0
100
AcDbBlockBegin
  2
*Paper_Space
 70
     0
 10
0.0
 20
0.0
 30
0.0
  3
*Paper_Space
  1

  0
ENDBLK
  5
1D
330
1B
100
AcDbEntity
 67
     1
  8
0
100
AcDbBlockEnd
  0
BLOCK
  5
24
330
23
100
AcDbEntity
  8
0
100
AcDbBlockBegin
  2
*Paper_Space0
 70
     0
 10
0.0
 20
0.0
 30
0.0
  3
*Paper_Space0
  1

  0
ENDBLK
  5
25
330
23
100
AcDbEntity
  8
0
100
AcDbBlockEnd
  0
BLOCK
  5
89
330
86
100
AcDbEntity
  8
0
100
AcDbBlockBegin
  2
block9_0
 70
     0
 10
0.0
 20
0.0
 30
0.0
  3
block9_0
  1

  0
SOLID
  5
87
330
86
100
AcDbEntity
  8
0
 62
   254
100
AcDbTrace
 10
3.687499999999943
 20
0.0
 30
0.0
 11
-3.687499999999936
 21
0.0
 31
0.0
 12
3.687499999999943
 22
0.375
 32
0.0
 13
-3.687499999999936
 23
0.375
 33
0.0
  0
LWPOLYLINE
  5
88
330
86
100
AcDbEntity
  8
0
 62
   251
100
AcDbPolyline
 90
        4
 70
     1
 43
0.0
 10
-3.687499999999936
 20
0.0
 10
-3.687499999999936
 20
0.375
 10
3.687499999999943
 20
0.375
 10
3.687499999999943
 20
0.0
  0
ENDBLK
  5
8A
330
86
100
AcDbEntity
  8
0
100
AcDbBlockEnd
  0
BLOCK
  5
147
330
13B
100
AcDbEntity
  8
0
100
AcDbBlockBegin
  2
block59_1
 70
     0
 10
0.0
 20
0.0
 30
0.0
  3
block59_1
  1

  0
SOLID
  5
13C
330
13B
100
AcDbEntity
  8
0
 62
   254
100
AcDbTrace
 10
0.9741843837435908
 20
3.6149261400966
 30
0.0
 11
-0.8491843837438182
 21
3.6149261400966
 31
0.0
 12
0.9741843837435908
 22
3.847815237828627
 32
0.0
 13
-0.8491843837438182
 23
3.847815237828627
 33
0.0
  0
LWPOLYLINE
  5
13D
330
13B
100
AcDbEntity
  8
0
 62
   251
100
AcDbPolyline
 90
        4
 70
     1
 43
0.0
 10
-0.8491843837438182
 20
3.6149261400966
 10
-0.8491843837438182
 20
3.847815237828627
 10
0.9741843837435908
 20
3.847815237828627
 10
0.9741843837435908
 20
3.6149261400966
  0
LINE
  5
13E
330
13B
100
AcDbEntity
  8
0
 62
   254
370
     0
100
AcDbLine
 10
0.7071067811865477
 20
0.0
 30
0.0
 11
0.9741843837436477
 21
0.2670776025570998
 31
0.0
  0
LINE
  5
13F
330
13B
100
AcDbEntity
  8
0
 62
   254
370
     0
100
AcDbLine
 10
0.0
 20
0.0
 30
0.0
 11
0.9741843837436477
 21
0.9741843837436477
 31
0.0
  0
LINE
  5
140
330
13B
100
AcDbEntity
  8
0
 62
   254
370
     0
100
AcDbLine
 10
-0.7071067811865477
 20
0.0
 30
0.0
 11
0.9741843837436477
 21
1.681291164930195
 31
0.0
  0
LINE
  5
141
330
13B
100
AcDbEntity
  8
0
 62
   254
370
     0
100
AcDbLine
 10
-0.9741843837437045
 20
0.4400291786293906
 30
0.0
 11
0.9741843837436477
 21
2.388397946116743
 31
0.0
  0
LINE
  5
142
330
13B
100
AcDbEntity
  8
0
 62
   254
370
     0
100
AcDbLine
 10
-0.9741843837437045
 20
1.147135959815938
 30
0.0
 11
0.9741843837436477
 21
3.09550472730329
 31
0.0
  0
LINE
  5
143
330
13B
100
AcDbEntity
  8
0
 62
   254
370
     0
100
AcDbLine
 10
-0.9741843837437045
 20
1.854242741002486
 30
0.0
 11
0.7864990153504099
 21
3.6149261400966
 31
0.0
  0
LINE
  5
144
330
13B
100
AcDbEntity
  8
0
 62
   254
370
     0
100
AcDbLine
 10
-0.9741843837437045
 20
2.561349522189033
 30
0.0
 11
0.0793922341638629
 21
3.6149261400966
 31
0.0
  0
LINE
  5
145
330
13B
100
AcDbEntity
  8
0
 62
   254
370
     0
100
AcDbLine
 10
-0.9741843837437045
 20
3.268456303375581
 30
0.0
 11
-0.6277145470226857
 21
3.6149261400966
 31
0.0
  0
LWPOLYLINE
  5
146
330
13B
100
AcDbEntity
  8
0
 62
     7
370
     0
100
AcDbPolyline
 90
        4
 70
     1
 43
0.0
 10
0.9741843837436477
 20
3.6149261400966
 10
0.9741843837436477
 20
0.0
 10
-0.9741843837437045
 20
0.0
 10
-0.9741843837437045
 20
3.614926140096657
1001
CHIEFARC-LNWT
1070
     2
  0
ENDBLK
  5
148
330
13B
100
AcDbEntity
  8
0
100
AcDbBlockEnd
  0
BLOCK
  5
1A7
330
15A
100
AcDbEntity
  8
0
100
AcDbBlockBegin
  2
block48
 70
     0
 10
0.0
 20
0.0
 30
0.0
  3
block48
  1

  0
LINE
  5
15B
330
15A
100
AcDbEntity
  8
0
 62
   253
370
    13
100
AcDbLine
 10
0.714147759880342
 20
0.0070409786937944
 30
0.0
 11
1.007635041805372
 21
0.3005282606188224
 31
0.0
1001
CHIEFARC-LNWT
1070
    12
  0
LINE
  5
15C
330
15A
100
AcDbEntity
  8
0
 62
   253
370
    13
100
AcDbLine
 10
0.2496178446471772
 20
0.2496178446471798
 30
0.0
 11
1.007635041805372
 21
1.007635041805372
 31
0.0
1001
CHIEFARC-LNWT
1070
    12
  0
LINE
  5
15D
330
15A
100
AcDbEntity
  8
0
 62
   253
370
    13
100
AcDbLine
 10
0.2720310455206111
 20
0.979137826707159
 30
0.0
 11
1.007635041805372
 21
1.714741822991918
 31
0.0
1001
CHIEFARC-LNWT
1070
    12
  0
LINE
  5
15E
330
15A
100
AcDbEntity
  8
0
 62
   253
370
    13
100
AcDbLine
 10
0.3062399052001082
 20
1.720453467573204
 30
0.0
 11
1.007635041805372
 21
2.421848604178466
 31
0.0
1001
CHIEFARC-LNWT
1070
    12
  0
LINE
  5
15F
330
15A
100
AcDbEntity
  8
0
 62
   253
370
    13
100
AcDbLine
 10
0.3404487648796053
 20
2.461769108439247
 30
0.0
 11
1.007635041805372
 21
3.128955385365014
 31
0.0
1001
CHIEFARC-LNWT
1070
    12
  0
LINE
  5
160
330
15A
100
AcDbEntity
  8
0
 62
   253
370
    13
100
AcDbLine
 10
0.3746576245591025
 20
3.203084749305293
 30
0.0
 11
1.007635041805372
 21
3.836062166551562
 31
0.0
1001
CHIEFARC-LNWT
1070
    12
  0
LINE
  5
161
330
15A
100
AcDbEntity
  8
0
 62
   253
370
    13
100
AcDbLine
 10
0.4088664842385995
 20
3.944400390171336
 30
0.0
 11
1.007635041805372
 21
4.543168947738108
 31
0.0
1001
CHIEFARC-LNWT
1070
    12
  0
LINE
  5
162
330
15A
100
AcDbEntity
  8
0
 62
   253
370
    13
100
AcDbLine
 10
0.4430753439180967
 20
4.685716031037382
 30
0.0
 11
1.007635041805372
 21
5.250275728924656
 31
0.0
1001
CHIEFARC-LNWT
1070
    12
  0
LINE
  5
163
330
15A
100
AcDbEntity
  8
0
 62
   253
370
    13
100
AcDbLine
 10
0.4772842035975937
 20
5.427031671903425
 30
0.0
 11
1.007635041805372
 21
5.957382510111204
 31
0.0
1001
CHIEFARC-LNWT
1070
    12
  0
LINE
  5
164
330
15A
100
AcDbEntity
  8
0
 62
   253
370
    13
100
AcDbLine
 10
0.5114930632770908
 20
6.168347312769469
 30
0.0
 11
1.007635041805372
 21
6.664489291297752
 31
0.0
1001
CHIEFARC-LNWT
1070
    12
  0
LINE
  5
165
330
15A
100
AcDbEntity
  8
0
 62
   253
370
    13
100
AcDbLine
 10
0.5457019229565879
 20
6.909662953635515
 30
0.0
 11
1.007635041805372
 21
7.371596072484301
 31
0.0
1001
CHIEFARC-LNWT
1070
    12
  0
LINE
  5
166
330
15A
100
AcDbEntity
  8
0
 62
   253
370
    13
100
AcDbLine
 10
0.579910782636085
 20
7.650978594501558
 30
0.0
 11
1.007635041805372
 21
8.078702853670846
 31
0.0
1001
CHIEFARC-LNWT
1070
    12
  0
LINE
  5
167
330
15A
100
AcDbEntity
  8
0
 62
   253
370
    13
100
AcDbLine
 10
0.6141196423155821
 20
8.392294235367604
 30
0.0
 11
1.007635041805372
 21
8.785809634857394
 31
0.0
1001
CHIEFARC-LNWT
1070
    12
  0
LINE
  5
168
330
15A
100
AcDbEntity
  8
0
 62
   253
370
    13
100
AcDbLine
 10
0.6483285019950793
 20
9.13360987623365
 30
0.0
 11
1.007635041805372
 21
9.492916416043942
 31
0.0
1001
CHIEFARC-LNWT
1070
    12
  0
LINE
  5
169
330
15A
100
AcDbEntity
  8
0
 62
   253
370
    13
100
AcDbLine
 10
0.6825373616745762
 20
9.87492551709969
 30
0.0
 11
1.007635041805372
 21
10.20002319723049
 31
0.0
1001
CHIEFARC-LNWT
1070
    12
  0
LINE
  5
16A
330
15A
100
AcDbEntity
  8
0
 62
   253
370
    13
100
AcDbLine
 10
0.7167462213540734
 20
10.61624115796574
 30
0.0
 11
1.007635041805372
 21
10.90712997841704
 31
0.0
1001
CHIEFARC-LNWT
1070
    12
  0
LINE
  5
16B
330
15A
100
AcDbEntity
  8
0
 62
   253
370
    13
100
AcDbLine
 10
0.7509550810335704
 20
11.35755679883178
 30
0.0
 11
1.007635041805372
 21
11.61423675960358
 31
0.0
1001
CHIEFARC-LNWT
1070
    12
  0
LINE
  5
16C
330
15A
100
AcDbEntity
  8
0
 62
   253
370
    13
100
AcDbLine
 10
0.7851639407130676
 20
12.09887243969783
 30
0.0
 11
1.007635041805372
 21
12.32134354079013
 31
0.0
1001
CHIEFARC-LNWT
1070
    12
  0
LINE
  5
16D
330
15A
100
AcDbEntity
  8
0
 62
   253
370
    13
100
AcDbLine
 10
0.8193728003925647
 20
12.84018808056387
 30
0.0
 11
1.007635041805372
 21
13.02845032197668
 31
0.0
1001
CHIEFARC-LNWT
1070
    12
  0
LINE
  5
16E
330
15A
100
AcDbEntity
  8
0
 62
   253
370
    13
100
AcDbLine
 10
0.8535816600720618
 20
13.58150372142992
 30
0.0
 11
1.007635041805372
 21
13.73555710316323
 31
0.0
1001
CHIEFARC-LNWT
1070
    12
  0
LINE
  5
16F
330
15A
100
AcDbEntity
  8
0
 62
   253
370
    13
100
AcDbLine
 10
0.8877905197515586
 20
14.32281936229595
 30
0.0
 11
1.007635041805372
 21
14.44266388434977
 31
0.0
1001
CHIEFARC-LNWT
1070
    12
  0
LINE
  5
170
330
15A
100
AcDbEntity
  8
0
 62
   253
370
    13
100
AcDbLine
 10
0.9219993794310558
 20
15.064135003162
 30
0.0
 11
1.007635041805372
 21
15.14977066553632
 31
0.0
1001
CHIEFARC-LNWT
1070
    12
  0
LINE
  5
171
330
15A
100
AcDbEntity
  8
0
 62
   253
370
    13
100
AcDbLine
 10
0.9562082391105532
 20
15.80545064402805
 30
0.0
 11
1.007635041805372
 21
15.85687744672287
 31
0.0
1001
CHIEFARC-LNWT
1070
    12
  0
LINE
  5
172
330
15A
100
AcDbEntity
  8
0
 62
   253
370
    13
100
AcDbLine
 10
0.9904170987900501
 20
16.54676628489409
 30
0.0
 11
1.007635041805372
 21
16.56398422790942
 31
0.0
1001
CHIEFARC-LNWT
1070
    12
  0
LINE
  5
173
330
15A
100
AcDbEntity
  8
0
 62
   253
370
    13
100
AcDbLine
 10
-0.2000658024927531
 20
0.5070409786937944
 30
0.0
 11
0.2720310455206112
 21
0.9791378267071593
 31
0.0
1001
CHIEFARC-LNWT
1070
    12
  0
LINE
  5
174
330
15A
100
AcDbEntity
  8
0
 62
   253
370
    13
100
AcDbLine
 10
-0.4018766772564975
 20
1.012336885116598
 30
0.0
 11
0.3062399052001082
 21
1.720453467573204
 31
0.0
1001
CHIEFARC-LNWT
1070
    12
  0
LINE
  5
175
330
15A
100
AcDbEntity
  8
0
 62
   253
370
    13
100
AcDbLine
 10
-0.4278155087460468
 20
1.693504834813596
 30
0.0
 11
0.3404487648796054
 21
2.461769108439249
 31
0.0
1001
CHIEFARC-LNWT
1070
    12
  0
LINE
  5
176
330
15A
100
AcDbEntity
  8
0
 62
   253
370
    13
100
AcDbLine
 10
-0.4537543402355961
 20
2.374672784510594
 30
0.0
 11
0.3746576245591025
 21
3.203084749305294
 31
0.0
1001
CHIEFARC-LNWT
1070
    12
  0
LINE
  5
177
330
15A
100
AcDbEntity
  8
0
 62
   253
370
    13
100
AcDbLine
 10
-0.4796931717251454
 20
3.055840734207592
 30
0.0
 11
0.4088664842385995
 21
3.944400390171337
 31
0.0
1001
CHIEFARC-LNWT
1070
    12
  0
LINE
  5
178
330
15A
100
AcDbEntity
  8
0
 62
   253
370
    13
100
AcDbLine
 10
-0.5056320032146946
 20
3.737008683904589
 30
0.0
 11
0.4430753439180967
 21
4.685716031037384
 31
0.0
1001
CHIEFARC-LNWT
1070
    12
  0
LINE
  5
179
330
15A
100
AcDbEntity
  8
0
 62
   253
370
    13
100
AcDbLine
 10
-0.5315708347042439
 20
4.418176633601589
 30
0.0
 11
0.4772842035975937
 21
5.427031671903425
 31
0.0
1001
CHIEFARC-LNWT
1070
    12
  0
LINE
  5
17A
330
15A
100
AcDbEntity
  8
0
 62
   253
370
    13
100
AcDbLine
 10
-0.5575096661937933
 20
5.099344583298588
 30
0.0
 11
0.5114930632770909
 21
6.168347312769473
 31
0.0
1001
CHIEFARC-LNWT
1070
    12
  0
LINE
  5
17B
330
15A
100
AcDbEntity
  8
0
 62
   253
370
    13
100
AcDbLine
 10
-0.5834484976833425
 20
5.780512532995585
 30
0.0
 11
0.545701922956588
 21
6.909662953635518
 31
0.0
1001
CHIEFARC-LNWT
1070
    12
  0
LINE
  5
17C
330
15A
100
AcDbEntity
  8
0
 62
   253
370
    13
100
AcDbLine
 10
-0.6093873291728917
 20
6.461680482692582
 30
0.0
 11
0.579910782636085
 21
7.650978594501559
 31
0.0
1001
CHIEFARC-LNWT
1070
    12
  0
LINE
  5
17D
330
15A
100
AcDbEntity
  8
0
 62
   253
370
    13
100
AcDbLine
 10
-0.6353261606624411
 20
7.142848432389582
 30
0.0
 11
0.6141196423155821
 21
8.392294235367604
 31
0.0
1001
CHIEFARC-LNWT
1070
    12
  0
LINE
  5
17E
330
15A
100
AcDbEntity
  8
0
 62
   253
370
    13
100
AcDbLine
 10
-0.6612649921519904
 20
7.824016382086581
 30
0.0
 11
0.6483285019950792
 21
9.133609876233649
 31
0.0
1001
CHIEFARC-LNWT
1070
    12
  0
LINE
  5
17F
330
15A
100
AcDbEntity
  8
0
 62
   253
370
    13
100
AcDbLine
 10
-0.6872038236415396
 20
8.505184331783578
 30
0.0
 11
0.6825373616745765
 21
9.874925517099697
 31
0.0
1001
CHIEFARC-LNWT
1070
    12
  0
LINE
  5
180
330
15A
100
AcDbEntity
  8
0
 62
   253
370
    13
100
AcDbLine
 10
-0.7131426551310889
 20
9.186352281480575
 30
0.0
 11
0.7167462213540734
 21
10.61624115796574
 31
0.0
1001
CHIEFARC-LNWT
1070
    12
  0
LINE
  5
181
330
15A
100
AcDbEntity
  8
0
 62
   253
370
    13
100
AcDbLine
 10
-0.7390814866206383
 20
9.867520231177577
 30
0.0
 11
0.7509550810335706
 21
11.35755679883178
 31
0.0
1001
CHIEFARC-LNWT
1070
    12
  0
LINE
  5
182
330
15A
100
AcDbEntity
  8
0
 62
   253
370
    13
100
AcDbLine
 10
-0.7650203181101876
 20
10.54868818087457
 30
0.0
 11
0.7851639407130676
 21
12.09887243969783
 31
0.0
1001
CHIEFARC-LNWT
1070
    12
  0
LINE
  5
183
330
15A
100
AcDbEntity
  8
0
 62
   253
370
    13
100
AcDbLine
 10
-0.7909591495997368
 20
11.22985613057157
 30
0.0
 11
0.8193728003925648
 21
12.84018808056387
 31
0.0
1001
CHIEFARC-LNWT
1070
    12
  0
LINE
  5
184
330
15A
100
AcDbEntity
  8
0
 62
   253
370
    13
100
AcDbLine
 10
-0.816897981089286
 20
11.91102408026857
 30
0.0
 11
0.8535816600720618
 21
13.58150372142992
 31
0.0
1001
CHIEFARC-LNWT
1070
    12
  0
LINE
  5
185
330
15A
100
AcDbEntity
  8
0
 62
   253
370
    13
100
AcDbLine
 10
-0.8428368125788352
 20
12.59219202996556
 30
0.0
 11
0.8877905197515589
 21
14.32281936229596
 31
0.0
1001
CHIEFARC-LNWT
1070
    12
  0
LINE
  5
186
330
15A
100
AcDbEntity
  8
0
 62
   253
370
    13
100
AcDbLine
 10
-0.8687756440683847
 20
13.27335997966257
 30
0.0
 11
0.9219993794310561
 21
15.06413500316201
 31
0.0
1001
CHIEFARC-LNWT
1070
    12
  0
LINE
  5
187
330
15A
100
AcDbEntity
  8
0
 62
   253
370
    13
100
AcDbLine
 10
-0.8947144755579339
 20
13.95452792935956
 30
0.0
 11
0.9562082391105531
 21
15.80545064402805
 31
0.0
1001
CHIEFARC-LNWT
1070
    12
  0
LINE
  5
188
330
15A
100
AcDbEntity
  8
0
 62
   253
370
    13
100
AcDbLine
 10
-0.9206533070474832
 20
14.63569587905656
 30
0.0
 11
0.9904170987900502
 21
16.54676628489409
 31
0.0
1001
CHIEFARC-LNWT
1070
    12
  0
LINE
  5
189
330
15A
100
AcDbEntity
  8
0
 62
   253
370
    13
100
AcDbLine
 10
-0.9465921385370324
 20
15.31686382875356
 30
0.0
 11
0.6564280005775533
 21
16.91988396786815
 31
0.0
1001
CHIEFARC-LNWT
1070
    12
  0
LINE
  5
18A
330
15A
100
AcDbEntity
  8
0
 62
   253
370
    13
100
AcDbLine
 10
-0.9725309700265817
 20
15.99803177845056
 30
0.0
 11
-0.0506787806089929
 21
16.91988396786815
 31
0.0
1001
CHIEFARC-LNWT
1070
    12
  0
LINE
  5
18B
330
15A
100
AcDbEntity
  8
0
 62
   253
370
    13
100
AcDbLine
 10
-0.9984698015161311
 20
16.67919972814756
 30
0.0
 11
-0.7577855617955418
 21
16.91988396786815
 31
0.0
1001
CHIEFARC-LNWT
1070
    12
  0
LINE
  5
18C
330
15A
100
AcDbEntity
  8
0
 62
   253
370
    13
100
AcDbLine
 10
-0.7000335103378303
 20
0.0070732708487173
 30
0.0
 11
-0.3826350418053721
 21
0.3244717393811754
 31
0.0
1001
CHIEFARC-LNWT
1070
    12
  0
LINE
  5
18D
330
15A
100
AcDbEntity
  8
0
 62
   253
370
    13
100
AcDbLine
 10
-1.007635041805372
 20
0.4065785205677229
 30
0.0
 11
-0.4018766772564974
 21
1.012336885116596
 31
0.0
1001
CHIEFARC-LNWT
1070
    12
  0
LINE
  5
18E
330
15A
100
AcDbEntity
  8
0
 62
   253
370
    13
100
AcDbLine
 10
-1.007635041805372
 20
1.11368530175427
 30
0.0
 11
-0.4278155087460468
 21
1.693504834813595
 31
0.0
1001
CHIEFARC-LNWT
1070
    12
  0
LINE
  5
18F
330
15A
100
AcDbEntity
  8
0
 62
   253
370
    13
100
AcDbLine
 10
-1.007635041805372
 20
1.820792082940818
 30
0.0
 11
-0.453754340235596
 21
2.374672784510592
 31
0.0
1001
CHIEFARC-LNWT
1070
    12
  0
LINE
  5
190
330
15A
100
AcDbEntity
  8
0
 62
   253
370
    13
100
AcDbLine
 10
-1.007635041805372
 20
2.527898864127365
 30
0.0
 11
-0.4796931717251454
 21
3.055840734207592
 31
0.0
1001
CHIEFARC-LNWT
1070
    12
  0
LINE
  5
191
330
15A
100
AcDbEntity
  8
0
 62
   253
370
    13
100
AcDbLine
 10
-1.007635041805372
 20
3.235005645313913
 30
0.0
 11
-0.5056320032146946
 21
3.737008683904589
 31
0.0
1001
CHIEFARC-LNWT
1070
    12
  0
LINE
  5
192
330
15A
100
AcDbEntity
  8
0
 62
   253
370
    13
100
AcDbLine
 10
-1.007635041805372
 20
3.94211242650046
 30
0.0
 11
-0.5315708347042439
 21
4.418176633601588
 31
0.0
1001
CHIEFARC-LNWT
1070
    12
  0
LINE
  5
193
330
15A
100
AcDbEntity
  8
0
 62
   253
370
    13
100
AcDbLine
 10
-1.007635041805372
 20
4.649219207687008
 30
0.0
 11
-0.5575096661937933
 21
5.099344583298588
 31
0.0
1001
CHIEFARC-LNWT
1070
    12
  0
LINE
  5
194
330
15A
100
AcDbEntity
  8
0
 62
   253
370
    13
100
AcDbLine
 10
-1.007635041805372
 20
5.356325988873555
 30
0.0
 11
-0.5834484976833425
 21
5.780512532995585
 31
0.0
1001
CHIEFARC-LNWT
1070
    12
  0
LINE
  5
195
330
15A
100
AcDbEntity
  8
0
 62
   253
370
    13
100
AcDbLine
 10
-1.007635041805372
 20
6.063432770060102
 30
0.0
 11
-0.6093873291728917
 21
6.461680482692582
 31
0.0
1001
CHIEFARC-LNWT
1070
    12
  0
LINE
  5
196
330
15A
100
AcDbEntity
  8
0
 62
   253
370
    13
100
AcDbLine
 10
-1.007635041805372
 20
6.77053955124665
 30
0.0
 11
-0.635326160662441
 21
7.142848432389579
 31
0.0
1001
CHIEFARC-LNWT
1070
    12
  0
LINE
  5
197
330
15A
100
AcDbEntity
  8
0
 62
   253
370
    13
100
AcDbLine
 10
-1.007635041805372
 20
7.477646332433197
 30
0.0
 11
-0.6612649921519902
 21
7.824016382086576
 31
0.0
1001
CHIEFARC-LNWT
1070
    12
  0
LINE
  5
198
330
15A
100
AcDbEntity
  8
0
 62
   253
370
    13
100
AcDbLine
 10
-1.007635041805372
 20
8.184753113619745
 30
0.0
 11
-0.6872038236415398
 21
8.505184331783582
 31
0.0
1001
CHIEFARC-LNWT
1070
    12
  0
LINE
  5
199
330
15A
100
AcDbEntity
  8
0
 62
   253
370
    13
100
AcDbLine
 10
-1.007635041805372
 20
8.891859894806291
 30
0.0
 11
-0.713142655131089
 21
9.186352281480577
 31
0.0
1001
CHIEFARC-LNWT
1070
    12
  0
LINE
  5
19A
330
15A
100
AcDbEntity
  8
0
 62
   253
370
    13
100
AcDbLine
 10
-1.007635041805372
 20
9.59896667599284
 30
0.0
 11
-0.7390814866206381
 21
9.867520231177572
 31
0.0
1001
CHIEFARC-LNWT
1070
    12
  0
LINE
  5
19B
330
15A
100
AcDbEntity
  8
0
 62
   253
370
    13
100
AcDbLine
 10
-1.007635041805372
 20
10.30607345717939
 30
0.0
 11
-0.7650203181101874
 21
10.54868818087457
 31
0.0
1001
CHIEFARC-LNWT
1070
    12
  0
LINE
  5
19C
330
15A
100
AcDbEntity
  8
0
 62
   253
370
    13
100
AcDbLine
 10
-1.007635041805372
 20
11.01318023836593
 30
0.0
 11
-0.7909591495997368
 21
11.22985613057157
 31
0.0
1001
CHIEFARC-LNWT
1070
    12
  0
LINE
  5
19D
330
15A
100
AcDbEntity
  8
0
 62
   253
370
    13
100
AcDbLine
 10
-1.007635041805372
 20
11.72028701955248
 30
0.0
 11
-0.8168979810892861
 21
11.91102408026857
 31
0.0
1001
CHIEFARC-LNWT
1070
    12
  0
LINE
  5
19E
330
15A
100
AcDbEntity
  8
0
 62
   253
370
    13
100
AcDbLine
 10
-1.007635041805372
 20
12.42739380073903
 30
0.0
 11
-0.8428368125788354
 21
12.59219202996557
 31
0.0
1001
CHIEFARC-LNWT
1070
    12
  0
LINE
  5
19F
330
15A
100
AcDbEntity
  8
0
 62
   253
370
    13
100
AcDbLine
 10
-1.007635041805372
 20
13.13450058192558
 30
0.0
 11
-0.8687756440683847
 21
13.27335997966257
 31
0.0
1001
CHIEFARC-LNWT
1070
    12
  0
LINE
  5
1A0
330
15A
100
AcDbEntity
  8
0
 62
   253
370
    13
100
AcDbLine
 10
-1.007635041805372
 20
13.84160736311213
 30
0.0
 11
-0.8947144755579339
 21
13.95452792935956
 31
0.0
1001
CHIEFARC-LNWT
1070
    12
  0
LINE
  5
1A1
330
15A
100
AcDbEntity
  8
0
 62
   253
370
    13
100
AcDbLine
 10
-1.007635041805372
 20
14.54871414429867
 30
0.0
 11
-0.9206533070474832
 21
14.63569587905656
 31
0.0
1001
CHIEFARC-LNWT
1070
    12
  0
LINE
  5
1A2
330
15A
100
AcDbEntity
  8
0
 62
   253
370
    13
100
AcDbLine
 10
-1.007635041805372
 20
15.25582092548522
 30
0.0
 11
-0.9465921385370325
 21
15.31686382875356
 31
0.0
1001
CHIEFARC-LNWT
1070
    12
  0
LINE
  5
1A3
330
15A
100
AcDbEntity
  8
0
 62
   253
370
    13
100
AcDbLine
 10
-1.007635041805372
 20
15.96292770667177
 30
0.0
 11
-0.9725309700265817
 21
15.99803177845056
 31
0.0
1001
CHIEFARC-LNWT
1070
    12
  0
LINE
  5
1A4
330
15A
100
AcDbEntity
  8
0
 62
   253
370
    13
100
AcDbLine
 10
-1.007635041805372
 20
16.67003448785831
 30
0.0
 11
-0.9984698015161311
 21
16.67919972814756
 31
0.0
1001
CHIEFARC-LNWT
1070
    12
  0
LWPOLYLINE
  5
1A5
330
15A
100
AcDbEntity
  8
0
 62
     7
370
    18
100
AcDbPolyline
 90
        8
 70
     1
 43
0.0
 10
0.2490262978156181
 20
0.0070409786937943
 10
0.2502455955199223
 20
0.5070409786937943
 10
-0.3826350418053508
 20
0.5070409786937944
 10
-0.3826350418053721
 20
0.0070409761055998
 10
-1.007635041805379
 20
0.0071045687704264
 10
-1.007635041805357
 20
16.91988396786815
 10
1.007635041805372
 20
16.91988396786815
 10
1.007635041805372
 20
0.0070409786937944
  0
LINE
  5
1A6
330
15A
100
AcDbEntity
  8
0
100
AcDbLine
 10
0.7407661534417684
 20
0.0
 30
0.0
 11
0.7407661534418253
 21
16.96916042181942
 31
0.0
  0
ENDBLK
  5
1A8
330
15A
100
AcDbEntity
  8
0
100
AcDbBlockEnd
  0
BLOCK
  5
34F
330
2DC
100
AcDbEntity
  8
0
100
AcDbBlockBegin
  2
block35
 70
     0
 10
0.0
 20
0.0
 30
0.0
  3
block35
  1

  0
INSERT
  5
34D
330
2DC
100
AcDbEntity
  8
0
  6
Continuous
370
     0
100
AcDbBlockReference
  2
block33_1
 10
0.0
 20
0.0000000000001137
 30
0.0
1001
CHIEFARC-LNWT
1070
     0
  0
LINE
  5
34E
330
2DC
100
AcDbEntity
  8
0
100
AcDbLine
 10
-0.7509544103592134
 20
0.0
 30
0.0
 11
-0.7509544103593271
 21
23.28167144189581
 31
0.0
  0
ENDBLK
  5
350
330
2DC
100
AcDbEntity
  8
0
100
AcDbBlockEnd
  0
BLOCK
  5
34B
330
2DD
100
AcDbEntity
  8
0
100
AcDbBlockBegin
  2
block33_1
 70
     0
 10
0.0
 20
0.0
 30
0.0
  3
block33_1
  1

  0
LINE
  5
2DE
330
2DD
100
AcDbEntity
  8
0
 62
   253
370
    13
100
AcDbLine
 10
0.7071067811865476
 20
0.0
 30
0.0
 11
1.0009544103591
 21
0.2938476291725536
 31
0.0
1001
CHIEFARC-LNWT
1070
    12
  0
LINE
  5
2DF
330
2DD
100
AcDbEntity
  8
0
 62
   253
370
    13
100
AcDbLine
 10
0.3759544103590997
 20
0.3759544103590996
 30
0.0
 11
1.0009544103591
 21
1.0009544103591
 31
0.0
1001
CHIEFARC-LNWT
1070
    12
  0
LINE
  5
2E0
330
2DD
100
AcDbEntity
  8
0
 62
   253
370
    13
100
AcDbLine
 10
0.3759544103590997
 20
1.083061191545647
 30
0.0
 11
1.0009544103591
 21
1.708061191545649
 31
0.0
1001
CHIEFARC-LNWT
1070
    12
  0
LINE
  5
2E1
330
2DD
100
AcDbEntity
  8
0
 62
   253
370
    13
100
AcDbLine
 10
0.3759544103590997
 20
1.790167972732194
 30
0.0
 11
1.0009544103591
 21
2.415167972732196
 31
0.0
1001
CHIEFARC-LNWT
1070
    12
  0
LINE
  5
2E2
330
2DD
100
AcDbEntity
  8
0
 62
   253
370
    13
100
AcDbLine
 10
0.3759544103590997
 20
2.497274753918742
 30
0.0
 11
1.0009544103591
 21
3.122274753918742
 31
0.0
1001
CHIEFARC-LNWT
1070
    12
  0
LINE
  5
2E3
330
2DD
100
AcDbEntity
  8
0
 62
   253
370
    13
100
AcDbLine
 10
0.3759544103590997
 20
3.204381535105289
 30
0.0
 11
1.0009544103591
 21
3.829381535105288
 31
0.0
1001
CHIEFARC-LNWT
1070
    12
  0
LINE
  5
2E4
330
2DD
100
AcDbEntity
  8
0
 62
   253
370
    13
100
AcDbLine
 10
0.3759544103590997
 20
3.911488316291837
 30
0.0
 11
1.0009544103591
 21
4.536488316291837
 31
0.0
1001
CHIEFARC-LNWT
1070
    12
  0
LINE
  5
2E5
330
2DD
100
AcDbEntity
  8
0
 62
   253
370
    13
100
AcDbLine
 10
0.3759544103590997
 20
4.618595097478384
 30
0.0
 11
1.0009544103591
 21
5.243595097478384
 31
0.0
1001
CHIEFARC-LNWT
1070
    12
  0
LINE
  5
2E6
330
2DD
100
AcDbEntity
  8
0
 62
   253
370
    13
100
AcDbLine
 10
0.3759544103590997
 20
5.325701878664931
 30
0.0
 11
1.0009544103591
 21
5.95070187866493
 31
0.0
1001
CHIEFARC-LNWT
1070
    12
  0
LINE
  5
2E7
330
2DD
100
AcDbEntity
  8
0
 62
   253
370
    13
100
AcDbLine
 10
0.3759544103590997
 20
6.032808659851479
 30
0.0
 11
1.0009544103591
 21
6.657808659851479
 31
0.0
1001
CHIEFARC-LNWT
1070
    12
  0
LINE
  5
2E8
330
2DD
100
AcDbEntity
  8
0
 62
   253
370
    13
100
AcDbLine
 10
0.3759544103590997
 20
6.739915441038026
 30
0.0
 11
1.0009544103591
 21
7.364915441038026
 31
0.0
1001
CHIEFARC-LNWT
1070
    12
  0
LINE
  5
2E9
330
2DD
100
AcDbEntity
  8
0
 62
   253
370
    13
100
AcDbLine
 10
0.3759544103590997
 20
7.447022222224573
 30
0.0
 11
1.0009544103591
 21
8.072022222224575
 31
0.0
1001
CHIEFARC-LNWT
1070
    12
  0
LINE
  5
2EA
330
2DD
100
AcDbEntity
  8
0
 62
   253
370
    13
100
AcDbLine
 10
0.3759544103590997
 20
8.154129003411121
 30
0.0
 11
1.0009544103591
 21
8.77912900341112
 31
0.0
1001
CHIEFARC-LNWT
1070
    12
  0
LINE
  5
2EB
330
2DD
100
AcDbEntity
  8
0
 62
   253
370
    13
100
AcDbLine
 10
0.3759544103590997
 20
8.861235784597671
 30
0.0
 11
1.0009544103591
 21
9.486235784597667
 31
0.0
1001
CHIEFARC-LNWT
1070
    12
  0
LINE
  5
2EC
330
2DD
100
AcDbEntity
  8
0
 62
   253
370
    13
100
AcDbLine
 10
0.3759544103590997
 20
9.568342565784217
 30
0.0
 11
1.0009544103591
 21
10.19334256578422
 31
0.0
1001
CHIEFARC-LNWT
1070
    12
  0
LINE
  5
2ED
330
2DD
100
AcDbEntity
  8
0
 62
   253
370
    13
100
AcDbLine
 10
0.3759544103590997
 20
10.27544934697076
 30
0.0
 11
1.0009544103591
 21
10.90044934697076
 31
0.0
1001
CHIEFARC-LNWT
1070
    12
  0
LINE
  5
2EE
330
2DD
100
AcDbEntity
  8
0
 62
   253
370
    13
100
AcDbLine
 10
0.3759544103590997
 20
10.98255612815731
 30
0.0
 11
1.0009544103591
 21
11.60755612815731
 31
0.0
1001
CHIEFARC-LNWT
1070
    12
  0
LINE
  5
2EF
330
2DD
100
AcDbEntity
  8
0
 62
   253
370
    13
100
AcDbLine
 10
0.3759544103590997
 20
11.68966290934386
 30
0.0
 11
1.0009544103591
 21
12.31466290934386
 31
0.0
1001
CHIEFARC-LNWT
1070
    12
  0
LINE
  5
2F0
330
2DD
100
AcDbEntity
  8
0
 62
   253
370
    13
100
AcDbLine
 10
0.3759544103590997
 20
12.39676969053041
 30
0.0
 11
1.0009544103591
 21
13.02176969053041
 31
0.0
1001
CHIEFARC-LNWT
1070
    12
  0
LINE
  5
2F1
330
2DD
100
AcDbEntity
  8
0
 62
   253
370
    13
100
AcDbLine
 10
0.3759544103590997
 20
13.10387647171695
 30
0.0
 11
1.0009544103591
 21
13.72887647171695
 31
0.0
1001
CHIEFARC-LNWT
1070
    12
  0
LINE
  5
2F2
330
2DD
100
AcDbEntity
  8
0
 62
   253
370
    13
100
AcDbLine
 10
0.3759544103590997
 20
13.8109832529035
 30
0.0
 11
1.0009544103591
 21
14.4359832529035
 31
0.0
1001
CHIEFARC-LNWT
1070
    12
  0
LINE
  5
2F3
330
2DD
100
AcDbEntity
  8
0
 62
   253
370
    13
100
AcDbLine
 10
0.3759544103590997
 20
14.51809003409005
 30
0.0
 11
1.0009544103591
 21
15.14309003409005
 31
0.0
1001
CHIEFARC-LNWT
1070
    12
  0
LINE
  5
2F4
330
2DD
100
AcDbEntity
  8
0
 62
   253
370
    13
100
AcDbLine
 10
0.3759544103590997
 20
15.2251968152766
 30
0.0
 11
1.0009544103591
 21
15.85019681527659
 31
0.0
1001
CHIEFARC-LNWT
1070
    12
  0
LINE
  5
2F5
330
2DD
100
AcDbEntity
  8
0
 62
   253
370
    13
100
AcDbLine
 10
0.3759544103590997
 20
15.93230359646314
 30
0.0
 11
1.0009544103591
 21
16.55730359646314
 31
0.0
1001
CHIEFARC-LNWT
1070
    12
  0
LINE
  5
2F6
330
2DD
100
AcDbEntity
  8
0
 62
   253
370
    13
100
AcDbLine
 10
0.3759544103590997
 20
16.63941037764969
 30
0.0
 11
1.0009544103591
 21
17.26441037764969
 31
0.0
1001
CHIEFARC-LNWT
1070
    12
  0
LINE
  5
2F7
330
2DD
100
AcDbEntity
  8
0
 62
   253
370
    13
100
AcDbLine
 10
0.3759544103590997
 20
17.34651715883624
 30
0.0
 11
1.0009544103591
 21
17.97151715883624
 31
0.0
1001
CHIEFARC-LNWT
1070
    12
  0
LINE
  5
2F8
330
2DD
100
AcDbEntity
  8
0
 62
   253
370
    13
100
AcDbLine
 10
0.3759544103590997
 20
18.05362394002278
 30
0.0
 11
1.0009544103591
 21
18.67862394002278
 31
0.0
1001
CHIEFARC-LNWT
1070
    12
  0
LINE
  5
2F9
330
2DD
100
AcDbEntity
  8
0
 62
   253
370
    13
100
AcDbLine
 10
0.3759544103590997
 20
18.76073072120933
 30
0.0
 11
1.0009544103591
 21
19.38573072120933
 31
0.0
1001
CHIEFARC-LNWT
1070
    12
  0
LINE
  5
2FA
330
2DD
100
AcDbEntity
  8
0
 62
   253
370
    13
100
AcDbLine
 10
0.3759544103590997
 20
19.46783750239588
 30
0.0
 11
1.0009544103591
 21
20.09283750239588
 31
0.0
1001
CHIEFARC-LNWT
1070
    12
  0
LINE
  5
2FB
330
2DD
100
AcDbEntity
  8
0
 62
   253
370
    13
100
AcDbLine
 10
0.3759544103590997
 20
20.17494428358242
 30
0.0
 11
1.0009544103591
 21
20.79994428358242
 31
0.0
1001
CHIEFARC-LNWT
1070
    12
  0
LINE
  5
2FC
330
2DD
100
AcDbEntity
  8
0
 62
   253
370
    13
100
AcDbLine
 10
0.3759544103590997
 20
20.88205106476897
 30
0.0
 11
1.0009544103591
 21
21.50705106476897
 31
0.0
1001
CHIEFARC-LNWT
1070
    12
  0
LINE
  5
2FD
330
2DD
100
AcDbEntity
  8
0
 62
   253
370
    13
100
AcDbLine
 10
0.3759544103590997
 20
21.58915784595552
 30
0.0
 11
1.0009544103591
 21
22.21415784595552
 31
0.0
1001
CHIEFARC-LNWT
1070
    12
  0
LINE
  5
2FE
330
2DD
100
AcDbEntity
  8
0
 62
   253
370
    13
100
AcDbLine
 10
0.3759544103590997
 20
22.29626462714207
 30
0.0
 11
1.0009544103591
 21
22.92126462714207
 31
0.0
1001
CHIEFARC-LNWT
1070
    12
  0
LINE
  5
2FF
330
2DD
100
AcDbEntity
  8
0
 62
   253
370
    13
100
AcDbLine
 10
0.3759544103590997
 20
23.00337140832862
 30
0.0
 11
1.0009544103591
 21
23.62837140832862
 31
0.0
1001
CHIEFARC-LNWT
1070
    12
  0
LINE
  5
300
330
2DD
100
AcDbEntity
  8
0
 62
   253
370
    13
100
AcDbLine
 10
0.3759544103590997
 20
23.71047818951516
 30
0.0
 11
0.9616679168071574
 21
24.29619169596322
 31
0.0
1001
CHIEFARC-LNWT
1070
    12
  0
LINE
  5
301
330
2DD
100
AcDbEntity
  8
0
 62
   253
370
    13
100
AcDbLine
 10
-0.1802129159589508
 20
0.5268938652275965
 30
0.0
 11
0.3759544103590997
 21
1.083061191545649
 31
0.0
1001
CHIEFARC-LNWT
1070
    12
  0
LINE
  5
302
330
2DD
100
AcDbEntity
  8
0
 62
   253
370
    13
100
AcDbLine
 10
-0.2493397331717009
 20
1.164873829201406
 30
0.0
 11
0.3759544103590997
 21
1.790167972732196
 31
0.0
1001
CHIEFARC-LNWT
1070
    12
  0
LINE
  5
303
330
2DD
100
AcDbEntity
  8
0
 62
   253
370
    13
100
AcDbLine
 10
-0.249665611285687
 20
1.871654732273933
 30
0.0
 11
0.3759544103590997
 21
2.497274753918742
 31
0.0
1001
CHIEFARC-LNWT
1070
    12
  0
LINE
  5
304
330
2DD
100
AcDbEntity
  8
0
 62
   253
370
    13
100
AcDbLine
 10
-0.2499914893996732
 20
2.578435635346521
 30
0.0
 11
0.3759544103590997
 21
3.204381535105288
 31
0.0
1001
CHIEFARC-LNWT
1070
    12
  0
LINE
  5
305
330
2DD
100
AcDbEntity
  8
0
 62
   253
370
    13
100
AcDbLine
 10
-0.2503173675136593
 20
3.285216538419048
 30
0.0
 11
0.3759544103590997
 21
3.911488316291837
 31
0.0
1001
CHIEFARC-LNWT
1070
    12
  0
LINE
  5
306
330
2DD
100
AcDbEntity
  8
0
 62
   253
370
    13
100
AcDbLine
 10
-0.2506432456276455
 20
3.991997441491635
 30
0.0
 11
0.3759544103590997
 21
4.618595097478384
 31
0.0
1001
CHIEFARC-LNWT
1070
    12
  0
LINE
  5
307
330
2DD
100
AcDbEntity
  8
0
 62
   253
370
    13
100
AcDbLine
 10
-0.2509691237416316
 20
4.698778344564222
 30
0.0
 11
0.3759544103590997
 21
5.32570187866493
 31
0.0
1001
CHIEFARC-LNWT
1070
    12
  0
LINE
  5
308
330
2DD
100
AcDbEntity
  8
0
 62
   253
370
    13
100
AcDbLine
 10
-0.2512950018556178
 20
5.40555924763681
 30
0.0
 11
0.3759544103590997
 21
6.032808659851479
 31
0.0
1001
CHIEFARC-LNWT
1070
    12
  0
LINE
  5
309
330
2DD
100
AcDbEntity
  8
0
 62
   253
370
    13
100
AcDbLine
 10
-0.2516208799696039
 20
6.112340150709277
 30
0.0
 11
0.3759544103590997
 21
6.739915441038026
 31
0.0
1001
CHIEFARC-LNWT
1070
    12
  0
LINE
  5
30A
330
2DD
100
AcDbEntity
  8
0
 62
   253
370
    13
100
AcDbLine
 10
-0.25194675808359
 20
6.819121053781863
 30
0.0
 11
0.3759544103590997
 21
7.447022222224572
 31
0.0
1001
CHIEFARC-LNWT
1070
    12
  0
LINE
  5
30B
330
2DD
100
AcDbEntity
  8
0
 62
   253
370
    13
100
AcDbLine
 10
-0.2522726361975762
 20
7.525901956854452
 30
0.0
 11
0.3759544103590997
 21
8.154129003411118
 31
0.0
1001
CHIEFARC-LNWT
1070
    12
  0
LINE
  5
30C
330
2DD
100
AcDbEntity
  8
0
 62
   253
370
    13
100
AcDbLine
 10
-0.2525985143115623
 20
8.232682859927039
 30
0.0
 11
0.3759544103590997
 21
8.861235784597667
 31
0.0
1001
CHIEFARC-LNWT
1070
    12
  0
LINE
  5
30D
330
2DD
100
AcDbEntity
  8
0
 62
   253
370
    13
100
AcDbLine
 10
-0.2529243924255485
 20
8.939463762999624
 30
0.0
 11
0.3759544103590997
 21
9.568342565784217
 31
0.0
1001
CHIEFARC-LNWT
1070
    12
  0
LINE
  5
30E
330
2DD
100
AcDbEntity
  8
0
 62
   253
370
    13
100
AcDbLine
 10
-0.2532502705395346
 20
9.646244666072093
 30
0.0
 11
0.3759544103590997
 21
10.27544934697076
 31
0.0
1001
CHIEFARC-LNWT
1070
    12
  0
LINE
  5
30F
330
2DD
100
AcDbEntity
  8
0
 62
   253
370
    13
100
AcDbLine
 10
-0.2535761486535207
 20
10.35302556914468
 30
0.0
 11
0.3759544103590997
 21
10.98255612815731
 31
0.0
1001
CHIEFARC-LNWT
1070
    12
  0
LINE
  5
310
330
2DD
100
AcDbEntity
  8
0
 62
   253
370
    13
100
AcDbLine
 10
-0.2539020267675069
 20
11.05980647221727
 30
0.0
 11
0.3759544103590997
 21
11.68966290934386
 31
0.0
1001
CHIEFARC-LNWT
1070
    12
  0
LINE
  5
311
330
2DD
100
AcDbEntity
  8
0
 62
   253
370
    13
100
AcDbLine
 10
-0.254227904881493
 20
11.76658737528985
 30
0.0
 11
0.3759544103590997
 21
12.3967696905304
 31
0.0
1001
CHIEFARC-LNWT
1070
    12
  0
LINE
  5
312
330
2DD
100
AcDbEntity
  8
0
 62
   253
370
    13
100
AcDbLine
 10
-0.2545537829954791
 20
12.47336827836232
 30
0.0
 11
0.3759544103590997
 21
13.10387647171695
 31
0.0
1001
CHIEFARC-LNWT
1070
    12
  0
LINE
  5
313
330
2DD
100
AcDbEntity
  8
0
 62
   253
370
    13
100
AcDbLine
 10
-0.2548796611094653
 20
13.18014918143491
 30
0.0
 11
0.3759544103590997
 21
13.8109832529035
 31
0.0
1001
CHIEFARC-LNWT
1070
    12
  0
LINE
  5
314
330
2DD
100
AcDbEntity
  8
0
 62
   253
370
    13
100
AcDbLine
 10
-0.2552055392234515
 20
13.8869300845075
 30
0.0
 11
0.3759544103590997
 21
14.51809003409005
 31
0.0
1001
CHIEFARC-LNWT
1070
    12
  0
LINE
  5
315
330
2DD
100
AcDbEntity
  8
0
 62
   253
370
    13
100
AcDbLine
 10
-0.2555314173374376
 20
14.59371098758008
 30
0.0
 11
0.3759544103590997
 21
15.22519681527659
 31
0.0
1001
CHIEFARC-LNWT
1070
    12
  0
LINE
  5
316
330
2DD
100
AcDbEntity
  8
0
 62
   253
370
    13
100
AcDbLine
 10
-0.2558572954514238
 20
15.30049189065267
 30
0.0
 11
0.3759544103590997
 21
15.93230359646314
 31
0.0
1001
CHIEFARC-LNWT
1070
    12
  0
LINE
  5
317
330
2DD
100
AcDbEntity
  8
0
 62
   253
370
    13
100
AcDbLine
 10
-0.2561831735654099
 20
16.00727279372514
 30
0.0
 11
0.3759544103590997
 21
16.63941037764969
 31
0.0
1001
CHIEFARC-LNWT
1070
    12
  0
LINE
  5
318
330
2DD
100
AcDbEntity
  8
0
 62
   253
370
    13
100
AcDbLine
 10
-0.256509051679396
 20
16.71405369679772
 30
0.0
 11
0.3759544103590997
 21
17.34651715883624
 31
0.0
1001
CHIEFARC-LNWT
1070
    12
  0
LINE
  5
319
330
2DD
100
AcDbEntity
  8
0
 62
   253
370
    13
100
AcDbLine
 10
-0.2568349297933822
 20
17.42083459987031
 30
0.0
 11
0.3759544103590997
 21
18.05362394002278
 31
0.0
1001
CHIEFARC-LNWT
1070
    12
  0
LINE
  5
31A
330
2DD
100
AcDbEntity
  8
0
 62
   253
370
    13
100
AcDbLine
 10
-0.2571608079073683
 20
18.1276155029429
 30
0.0
 11
0.3759544103590997
 21
18.76073072120933
 31
0.0
1001
CHIEFARC-LNWT
1070
    12
  0
LINE
  5
31B
330
2DD
100
AcDbEntity
  8
0
 62
   253
370
    13
100
AcDbLine
 10
-0.2574866860213545
 20
18.83439640601549
 30
0.0
 11
0.3759544103590997
 21
19.46783750239588
 31
0.0
1001
CHIEFARC-LNWT
1070
    12
  0
LINE
  5
31C
330
2DD
100
AcDbEntity
  8
0
 62
   253
370
    13
100
AcDbLine
 10
-0.2578125641353406
 20
19.54117730908795
 30
0.0
 11
0.3759544103590997
 21
20.17494428358242
 31
0.0
1001
CHIEFARC-LNWT
1070
    12
  0
LINE
  5
31D
330
2DD
100
AcDbEntity
  8
0
 62
   253
370
    13
100
AcDbLine
 10
-0.2581384422493267
 20
20.24795821216054
 30
0.0
 11
0.3759544103590997
 21
20.88205106476897
 31
0.0
1001
CHIEFARC-LNWT
1070
    12
  0
LINE
  5
31E
330
2DD
100
AcDbEntity
  8
0
 62
   253
370
    13
100
AcDbLine
 10
-0.2584643203633129
 20
20.95473911523313
 30
0.0
 11
0.3759544103590997
 21
21.58915784595552
 31
0.0
1001
CHIEFARC-LNWT
1070
    12
  0
LINE
  5
31F
330
2DD
100
AcDbEntity
  8
0
 62
   253
370
    13
100
AcDbLine
 10
-0.2587901984772991
 20
21.66152001830571
 30
0.0
 11
0.3759544103590997
 21
22.29626462714207
 31
0.0
1001
CHIEFARC-LNWT
1070
    12
  0
LINE
  5
320
330
2DD
100
AcDbEntity
  8
0
 62
   253
370
    13
100
AcDbLine
 10
-0.2591160765912852
 20
22.36830092137818
 30
0.0
 11
0.3759544103590997
 21
23.00337140832862
 31
0.0
1001
CHIEFARC-LNWT
1070
    12
  0
LINE
  5
321
330
2DD
100
AcDbEntity
  8
0
 62
   253
370
    13
100
AcDbLine
 10
-0.2594419547052713
 20
23.07508182445077
 30
0.0
 11
0.3759544103590997
 21
23.71047818951516
 31
0.0
1001
CHIEFARC-LNWT
1070
    12
  0
LINE
  5
322
330
2DD
100
AcDbEntity
  8
0
 62
   253
370
    13
100
AcDbLine
 10
-0.2597678328192575
 20
23.78186272752335
 30
0.0
 11
0.2545611356206019
 21
24.29619169596322
 31
0.0
1001
CHIEFARC-LNWT
1070
    12
  0
LINE
  5
323
330
2DD
100
AcDbEntity
  8
0
 62
   253
370
    13
100
AcDbLine
 10
-0.7071067811865476
 20
0.0
 30
0.0
 11
-0.2490455896409003
 21
0.4580611915456472
 31
0.0
1001
CHIEFARC-LNWT
1070
    12
  0
LINE
  5
324
330
2DD
100
AcDbEntity
  8
0
 62
   253
370
    13
100
AcDbLine
 10
-0.9990455896409003
 20
0.4151679727321947
 30
0.0
 11
-0.2493397331717009
 21
1.164873829201408
 31
0.0
1001
CHIEFARC-LNWT
1070
    12
  0
LINE
  5
325
330
2DD
100
AcDbEntity
  8
0
 62
   253
370
    13
100
AcDbLine
 10
-0.9990455896409003
 20
1.122274753918742
 30
0.0
 11
-0.249665611285687
 21
1.871654732273932
 31
0.0
1001
CHIEFARC-LNWT
1070
    12
  0
LINE
  5
326
330
2DD
100
AcDbEntity
  8
0
 62
   253
370
    13
100
AcDbLine
 10
-0.9990455896409003
 20
1.829381535105289
 30
0.0
 11
-0.2499914893996732
 21
2.578435635346519
 31
0.0
1001
CHIEFARC-LNWT
1070
    12
  0
LINE
  5
327
330
2DD
100
AcDbEntity
  8
0
 62
   253
370
    13
100
AcDbLine
 10
-0.9990455896409003
 20
2.536488316291837
 30
0.0
 11
-0.2503173675136593
 21
3.28521653841905
 31
0.0
1001
CHIEFARC-LNWT
1070
    12
  0
LINE
  5
328
330
2DD
100
AcDbEntity
  8
0
 62
   253
370
    13
100
AcDbLine
 10
-0.9990455896409003
 20
3.243595097478384
 30
0.0
 11
-0.2506432456276455
 21
3.991997441491637
 31
0.0
1001
CHIEFARC-LNWT
1070
    12
  0
LINE
  5
329
330
2DD
100
AcDbEntity
  8
0
 62
   253
370
    13
100
AcDbLine
 10
-0.9990455896409003
 20
3.950701878664931
 30
0.0
 11
-0.2509691237416316
 21
4.698778344564221
 31
0.0
1001
CHIEFARC-LNWT
1070
    12
  0
LINE
  5
32A
330
2DD
100
AcDbEntity
  8
0
 62
   253
370
    13
100
AcDbLine
 10
-0.9990455896409003
 20
4.657808659851479
 30
0.0
 11
-0.2512950018556178
 21
5.405559247636809
 31
0.0
1001
CHIEFARC-LNWT
1070
    12
  0
LINE
  5
32B
330
2DD
100
AcDbEntity
  8
0
 62
   253
370
    13
100
AcDbLine
 10
-0.9990455896409003
 20
5.364915441038027
 30
0.0
 11
-0.2516208799696039
 21
6.112340150709279
 31
0.0
1001
CHIEFARC-LNWT
1070
    12
  0
LINE
  5
32C
330
2DD
100
AcDbEntity
  8
0
 62
   253
370
    13
100
AcDbLine
 10
-0.9990455896409003
 20
6.072022222224573
 30
0.0
 11
-0.25194675808359
 21
6.819121053781863
 31
0.0
1001
CHIEFARC-LNWT
1070
    12
  0
LINE
  5
32D
330
2DD
100
AcDbEntity
  8
0
 62
   253
370
    13
100
AcDbLine
 10
-0.9990455896409003
 20
6.77912900341112
 30
0.0
 11
-0.2522726361975762
 21
7.525901956854451
 31
0.0
1001
CHIEFARC-LNWT
1070
    12
  0
LINE
  5
32E
330
2DD
100
AcDbEntity
  8
0
 62
   253
370
    13
100
AcDbLine
 10
-0.9990455896409003
 20
7.486235784597669
 30
0.0
 11
-0.2525985143115623
 21
8.232682859927039
 31
0.0
1001
CHIEFARC-LNWT
1070
    12
  0
LINE
  5
32F
330
2DD
100
AcDbEntity
  8
0
 62
   253
370
    13
100
AcDbLine
 10
-0.9990455896409003
 20
8.193342565784217
 30
0.0
 11
-0.2529243924255485
 21
8.939463762999624
 31
0.0
1001
CHIEFARC-LNWT
1070
    12
  0
LINE
  5
330
330
2DD
100
AcDbEntity
  8
0
 62
   253
370
    13
100
AcDbLine
 10
-0.9990455896409003
 20
8.900449346970763
 30
0.0
 11
-0.2532502705395346
 21
9.646244666072093
 31
0.0
1001
CHIEFARC-LNWT
1070
    12
  0
LINE
  5
331
330
2DD
100
AcDbEntity
  8
0
 62
   253
370
    13
100
AcDbLine
 10
-0.9990455896409003
 20
9.607556128157311
 30
0.0
 11
-0.2535761486535207
 21
10.35302556914468
 31
0.0
1001
CHIEFARC-LNWT
1070
    12
  0
LINE
  5
332
330
2DD
100
AcDbEntity
  8
0
 62
   253
370
    13
100
AcDbLine
 10
-0.9990455896409003
 20
10.31466290934386
 30
0.0
 11
-0.2539020267675069
 21
11.05980647221727
 31
0.0
1001
CHIEFARC-LNWT
1070
    12
  0
LINE
  5
333
330
2DD
100
AcDbEntity
  8
0
 62
   253
370
    13
100
AcDbLine
 10
-0.9990455896409003
 20
11.02176969053041
 30
0.0
 11
-0.254227904881493
 21
11.76658737528985
 31
0.0
1001
CHIEFARC-LNWT
1070
    12
  0
LINE
  5
334
330
2DD
100
AcDbEntity
  8
0
 62
   253
370
    13
100
AcDbLine
 10
-0.9990455896409003
 20
11.72887647171695
 30
0.0
 11
-0.2545537829954791
 21
12.47336827836232
 31
0.0
1001
CHIEFARC-LNWT
1070
    12
  0
LINE
  5
335
330
2DD
100
AcDbEntity
  8
0
 62
   253
370
    13
100
AcDbLine
 10
-0.9990455896409003
 20
12.4359832529035
 30
0.0
 11
-0.2548796611094653
 21
13.18014918143491
 31
0.0
1001
CHIEFARC-LNWT
1070
    12
  0
LINE
  5
336
330
2DD
100
AcDbEntity
  8
0
 62
   253
370
    13
100
AcDbLine
 10
-0.9990455896409003
 20
13.14309003409005
 30
0.0
 11
-0.2552055392234515
 21
13.8869300845075
 31
0.0
1001
CHIEFARC-LNWT
1070
    12
  0
LINE
  5
337
330
2DD
100
AcDbEntity
  8
0
 62
   253
370
    13
100
AcDbLine
 10
-0.9990455896409003
 20
13.8501968152766
 30
0.0
 11
-0.2555314173374376
 21
14.59371098758008
 31
0.0
1001
CHIEFARC-LNWT
1070
    12
  0
LINE
  5
338
330
2DD
100
AcDbEntity
  8
0
 62
   253
370
    13
100
AcDbLine
 10
-0.9990455896409003
 20
14.55730359646314
 30
0.0
 11
-0.2558572954514238
 21
15.30049189065267
 31
0.0
1001
CHIEFARC-LNWT
1070
    12
  0
LINE
  5
339
330
2DD
100
AcDbEntity
  8
0
 62
   253
370
    13
100
AcDbLine
 10
-0.9990455896409003
 20
15.26441037764969
 30
0.0
 11
-0.2561831735654099
 21
16.00727279372514
 31
0.0
1001
CHIEFARC-LNWT
1070
    12
  0
LINE
  5
33A
330
2DD
100
AcDbEntity
  8
0
 62
   253
370
    13
100
AcDbLine
 10
-0.9990455896409003
 20
15.97151715883624
 30
0.0
 11
-0.256509051679396
 21
16.71405369679772
 31
0.0
1001
CHIEFARC-LNWT
1070
    12
  0
LINE
  5
33B
330
2DD
100
AcDbEntity
  8
0
 62
   253
370
    13
100
AcDbLine
 10
-0.9990455896409003
 20
16.67862394002278
 30
0.0
 11
-0.2568349297933822
 21
17.42083459987031
 31
0.0
1001
CHIEFARC-LNWT
1070
    12
  0
LINE
  5
33C
330
2DD
100
AcDbEntity
  8
0
 62
   253
370
    13
100
AcDbLine
 10
-0.9990455896409003
 20
17.38573072120933
 30
0.0
 11
-0.2571608079073683
 21
18.1276155029429
 31
0.0
1001
CHIEFARC-LNWT
1070
    12
  0
LINE
  5
33D
330
2DD
100
AcDbEntity
  8
0
 62
   253
370
    13
100
AcDbLine
 10
-0.9990455896409003
 20
18.09283750239588
 30
0.0
 11
-0.2574866860213545
 21
18.83439640601549
 31
0.0
1001
CHIEFARC-LNWT
1070
    12
  0
LINE
  5
33E
330
2DD
100
AcDbEntity
  8
0
 62
   253
370
    13
100
AcDbLine
 10
-0.9990455896409003
 20
18.79994428358242
 30
0.0
 11
-0.2578125641353406
 21
19.54117730908795
 31
0.0
1001
CHIEFARC-LNWT
1070
    12
  0
LINE
  5
33F
330
2DD
100
AcDbEntity
  8
0
 62
   253
370
    13
100
AcDbLine
 10
-0.9990455896409003
 20
19.50705106476898
 30
0.0
 11
-0.2581384422493267
 21
20.24795821216054
 31
0.0
1001
CHIEFARC-LNWT
1070
    12
  0
LINE
  5
340
330
2DD
100
AcDbEntity
  8
0
 62
   253
370
    13
100
AcDbLine
 10
-0.9990455896409003
 20
20.21415784595552
 30
0.0
 11
-0.2584643203633129
 21
20.95473911523313
 31
0.0
1001
CHIEFARC-LNWT
1070
    12
  0
LINE
  5
341
330
2DD
100
AcDbEntity
  8
0
 62
   253
370
    13
100
AcDbLine
 10
-0.9990455896409003
 20
20.92126462714207
 30
0.0
 11
-0.2587901984772991
 21
21.66152001830572
 31
0.0
1001
CHIEFARC-LNWT
1070
    12
  0
LINE
  5
342
330
2DD
100
AcDbEntity
  8
0
 62
   253
370
    13
100
AcDbLine
 10
-0.9990455896409003
 20
21.62837140832862
 30
0.0
 11
-0.2591160765912852
 21
22.36830092137818
 31
0.0
1001
CHIEFARC-LNWT
1070
    12
  0
LINE
  5
343
330
2DD
100
AcDbEntity
  8
0
 62
   253
370
    13
100
AcDbLine
 10
-0.9990455896409003
 20
22.33547818951516
 30
0.0
 11
-0.2594419547052713
 21
23.07508182445077
 31
0.0
1001
CHIEFARC-LNWT
1070
    12
  0
LINE
  5
344
330
2DD
100
AcDbEntity
  8
0
 62
   253
370
    13
100
AcDbLine
 10
-0.9990455896409003
 20
23.04258497070171
 30
0.0
 11
-0.2597678328192575
 21
23.78186272752336
 31
0.0
1001
CHIEFARC-LNWT
1070
    12
  0
LINE
  5
345
330
2DD
100
AcDbEntity
  8
0
 62
   253
370
    13
100
AcDbLine
 10
-0.9990455896409003
 20
23.74969175188826
 30
0.0
 11
-0.4525456455659417
 21
24.29619169596322
 31
0.0
1001
CHIEFARC-LNWT
1070
    12
  0
LINE
  5
346
330
2DD
100
AcDbEntity
  8
0
 62
   253
370
    13
100
AcDbLine
 10
0.2545611356205997
 20
24.29619169596322
 30
0.0
 11
0.3759544103590997
 21
24.41758497070172
 31
0.0
1001
CHIEFARC-LNWT
1070
    12
  0
LINE
  5
347
330
2DD
100
AcDbEntity
  8
0
 62
   253
370
    13
100
AcDbLine
 10
-0.2556901452733156
 20
24.49304719625585
 30
0.0
 11
0.047457422198783
 21
24.79619476372795
 31
0.0
1001
CHIEFARC-LNWT
1070
    12
  0
LWPOLYLINE
  5
348
330
2DD
100
AcDbEntity
  8
0
 62
     7
370
    18
100
AcDbPolyline
 90
       12
 70
     1
 43
0.0
 10
-0.2600049764000687
 20
24.29619169596322
 10
-0.2490455896409003
 20
24.79619169596322
 10
0.3759544103590998
 20
24.79619816251795
 10
0.3759544103590997
 20
24.29619169596322
 10
1.0009544103591
 20
24.29619169596322
 10
1.000954410359098
 20
0.0
 10
0.3759544103590997
 20
0.0
 10
0.3759544103590998
 20
0.5266787210156281
 10
-0.2490455896409002
 20
0.5269204920189168
 10
-0.2490455896409003
 20
0.0
 10
-0.9990455896409003
 20
0.0
 10
-0.9990455896408988
 20
24.29619169596322
  0
LWPOLYLINE
  5
349
330
2DD
100
AcDbEntity
  8
0
100
AcDbPolyline
 90
       12
 70
     1
 43
0.0
 10
1.000954410358986
 20
0.0
 10
0.375954410358986
 20
0.0
 10
0.3759544103589861
 20
0.5266787210155144
 10
-0.249045589641014
 20
0.5269204920189583
 10
-0.2490455896410141
 20
0.0
 10
-0.999045589641014
 20
0.0
 10
-0.999045589641014
 20
23.29619169596322
 10
-0.249045589641014
 20
23.29619169596322
 10
-0.2490455896410139
 20
24.79619169596322
 10
0.3759544103589861
 20
24.79619816251795
 10
0.375954410358986
 20
24.29619169596322
 10
1.000954410358986
 20
24.29619169596322
  0
LWPOLYLINE
  5
34A
330
2DD
100
AcDbEntity
  8
0
100
AcDbPolyline
 90
        3
 70
     0
 43
0.0
 10
-0.9990455896409003
 20
23.29619169596322
 10
-1.000954410359213
 20
24.29590717846838
 10
-0.2553157086342708
 20
24.29590717846838
  0
ENDBLK
  5
34C
330
2DD
100
AcDbEntity
  8
0
100
AcDbBlockEnd
  0
BLOCK
  5
37D
330
370
100
AcDbEntity
  8
0
100
AcDbBlockBegin
  2
block34_1
 70
     0
 10
0.0
 20
0.0
 30
0.0
  3
block34_1
  1

  0
SOLID
  5
371
330
370
100
AcDbEntity
  8
0
 62
     7
100
AcDbTrace
 10
-2.155392080373076
 20
11.38833587986255
 30
0.0
 11
-0.9138608348533808
 21
9.977601040287482
 31
0.0
 12
-2.155392080373076
 22
11.38833587986255
 32
0.0
 13
-3.542131957776974
 23
9.999144246213064
 33
0.0
  0
SOLID
  5
372
330
370
100
AcDbEntity
  8
0
 62
     7
100
AcDbTrace
 10
-0.9138608348533808
 20
9.977601040287482
 30
0.0
 11
-2.155392080373076
 21
11.38833587986255
 31
0.0
 12
2.304085137550487
 22
20.99095895392065
 32
0.0
 13
-2.142131501653921
 23
20.03351407291211
 33
0.0
  0
SOLID
  5
373
330
370
100
AcDbEntity
  8
0
 62
     7
100
AcDbTrace
 10
-0.9138608348533808
 20
9.977601040287482
 30
0.0
 11
2.304085137550487
 21
20.99095895392065
 31
0.0
 12
0.9418057358673197
 22
10.95530735246791
 32
0.0
 13
2.315424389813984
 23
12.32892600641469
 33
0.0
  0
SOLID
  5
374
330
370
100
AcDbEntity
  8
0
 62
     7
100
AcDbTrace
 10
2.286042172617272
 20
9.691872013008947
 30
0.0
 11
0.9418057358673195
 21
10.95530735246791
 31
0.0
 12
2.286042172617272
 22
9.691872013008947
 32
0.0
 13
3.542131957777087
 23
10.94796179816876
 33
0.0
  0
SOLID
  5
375
330
370
100
AcDbEntity
  8
0
 62
     7
100
AcDbTrace
 10
0.9418057358673195
 20
10.95530735246791
 30
0.0
 11
2.286042172617272
 21
9.691872013008947
 31
0.0
 12
-2.161731025513177
 22
0.0040937347157524
 32
0.0
 13
2.309433580608243
 23
0.959624880378783
 33
0.0
  0
SOLID
  5
376
330
370
100
AcDbEntity
  8
0
 62
     7
100
AcDbTrace
 10
0.9418057358673195
 20
10.95530735246791
 30
0.0
 11
-2.161731025513177
 21
0.0040937347157524
 31
0.0
 12
-0.9138608348533808
 22
9.977601040287482
 32
0.0
 13
-2.163366778538375
 23
8.728095096602488
 33
0.0
  0
LWPOLYLINE
  5
377
330
370
100
AcDbEntity
  8
0
 62
     7
100
AcDbPolyline
 90
       12
 70
     1
 43
0.0
 10
2.304085137550487
 20
20.99095895392065
 10
2.315424389813984
 20
12.32892600641469
 10
0.9418057358673195
 20
10.95530735246791
 10
3.542131957777087
 20
10.94796179816876
 10
2.286042172617272
 20
9.691872013008947
 10
2.309433580608243
 20
0.959624880378783
 10
-2.161731025513177
 20
0.0040937347157524
 10
-2.163366778538375
 20
8.728095096602488
 10
-0.9138608348533808
 20
9.977601040287482
 10
-3.542131957776974
 20
9.999144246213064
 10
-2.155392080373076
 20
11.38833587986255
 10
-2.142131501653921
 20
20.03351407291211
  0
INSERT
  5
37C
330
370
100
AcDbEntity
  8
0
  6
Continuous
370
     0
100
AcDbBlockReference
  2
Break_Line
 10
-2.231451014468348
 20
0.0
 30
0.0
1001
CHIEFARC-LNWT
1070
     0
  0
ENDBLK
  5
37E
330
370
100
AcDbEntity
  8
0
100
AcDbBlockEnd
  0
BLOCK
  5
37A
330
378
100
AcDbEntity
  8
0
100
AcDbBlockBegin
  2
Break_Line
 70
     0
 10
0.0
 20
0.0
 30
0.0
  3
Break_Line
  1

  0
LWPOLYLINE
  5
379
330
378
100
AcDbEntity
  8
0
100
AcDbPolyline
 90
        6
 70
     0
 43
0.0
 10
0.0758531737247452
 20
20.02936230674345
 10
0.0758531737247452
 20
11.37178725632516
 10
-1.309784784366492
 20
9.986149298233912
 10
1.309784784366492
 20
9.986149298233954
 10
0.0726287886091581
 20
8.74899330247662
 10
0.0726287886091583
 20
0.0000000000000284
  0
ENDBLK
  5
37B
330
378
100
AcDbEntity
  8
0
100
AcDbBlockEnd
  0
ENDSEC
  0
SECTION
  2
ENTITIES
  0
LINE
  5
3D
330
1F
100
AcDbEntity
  8
_DEFAULT_CAD_LAYER
 62
    56
370
     0
100
AcDbLine
 10
503.3809706082277
 20
594.0
 30
0.0
 11
504.0
 21
594.0000000000001
 31
0.0
  0
LINE
  5
3E
330
1F
100
AcDbEntity
  8
_DEFAULT_CAD_LAYER
 62
    56
370
     0
100
AcDbLine
 10
506.0
 20
594.0
 30
0.0
 11
508.0
 21
594.0
 31
0.0
  0
LINE
  5
3F
330
1F
100
AcDbEntity
  8
_DEFAULT_CAD_LAYER
 62
    56
370
     0
100
AcDbLine
 10
510.0
 20
594.0
 30
0.0
 11
512.0
 21
594.0
 31
0.0
  0
LINE
  5
40
330
1F
100
AcDbEntity
  8
_DEFAULT_CAD_LAYER
 62
    56
370
     0
100
AcDbLine
 10
514.0
 20
594.0
 30
0.0
 11
516.0
 21
594.0
 31
0.0
  0
LINE
  5
41
330
1F
100
AcDbEntity
  8
_DEFAULT_CAD_LAYER
 62
    56
370
     0
100
AcDbLine
 10
518.0
 20
594.0
 30
0.0
 11
518.1787361673737
 21
594.0
 31
0.0
  0
LINE
  5
42
330
1F
100
AcDbEntity
  8
_DEFAULT_CAD_LAYER
 62
    56
370
     0
100
AcDbLine
 10
504.0
 20
596.0
 30
0.0
 11
506.0
 21
596.0
 31
0.0
  0
LINE
  5
43
330
1F
100
AcDbEntity
  8
_DEFAULT_CAD_LAYER
 62
    56
370
     0
100
AcDbLine
 10
508.0
 20
596.0
 30
0.0
 11
510.0
 21
596.0
 31
0.0
  0
LINE
  5
44
330
1F
100
AcDbEntity
  8
_DEFAULT_CAD_LAYER
 62
    56
370
     0
100
AcDbLine
 10
512.0
 20
596.0
 30
0.0
 11
514.0
 21
596.0
 31
0.0
  0
LINE
  5
45
330
1F
100
AcDbEntity
  8
_DEFAULT_CAD_LAYER
 62
    56
370
     0
100
AcDbLine
 10
516.0
 20
596.0
 30
0.0
 11
518.0
 21
596.0
 31
0.0
  0
LINE
  5
46
330
1F
100
AcDbEntity
  8
_DEFAULT_CAD_LAYER
 62
    56
370
     0
100
AcDbLine
 10
518.0366529871195
 20
598.0
 30
0.0
 11
518.1787361673737
 21
598.0
 31
0.0
  0
LINE
  5
47
330
1F
100
AcDbEntity
  8
_DEFAULT_CAD_LAYER
 62
    56
370
     0
100
AcDbLine
 10
504.0
 20
592.75
 30
0.0
 11
506.0
 21
592.75
 31
0.0
  0
LINE
  5
48
330
1F
100
AcDbEntity
  8
_DEFAULT_CAD_LAYER
 62
    56
370
     0
100
AcDbLine
 10
508.0
 20
592.75
 30
0.0
 11
510.0
 21
592.75
 31
0.0
  0
LINE
  5
49
330
1F
100
AcDbEntity
  8
_DEFAULT_CAD_LAYER
 62
    56
370
     0
100
AcDbLine
 10
512.0
 20
592.75
 30
0.0
 11
514.0
 21
592.75
 31
0.0
  0
LINE
  5
4A
330
1F
100
AcDbEntity
  8
_DEFAULT_CAD_LAYER
 62
    56
370
     0
100
AcDbLine
 10
516.0
 20
592.75
 30
0.0
 11
518.0
 21
592.75
 31
0.0
  0
LINE
  5
4B
330
1F
100
AcDbEntity
  8
_DEFAULT_CAD_LAYER
 62
    56
370
     0
100
AcDbLine
 10
503.025707450333
 20
594.75
 30
0.0
 11
504.0
 21
594.75
 31
0.0
  0
LINE
  5
4C
330
1F
100
AcDbEntity
  8
_DEFAULT_CAD_LAYER
 62
    56
370
     0
100
AcDbLine
 10
505.9999999999999
 20
594.75
 30
0.0
 11
508.0
 21
594.75
 31
0.0
  0
LINE
  5
4D
330
1F
100
AcDbEntity
  8
_DEFAULT_CAD_LAYER
 62
    56
370
     0
100
AcDbLine
 10
510.0
 20
594.75
 30
0.0
 11
512.0
 21
594.75
 31
0.0
  0
LINE
  5
4E
330
1F
100
AcDbEntity
  8
_DEFAULT_CAD_LAYER
 62
    56
370
     0
100
AcDbLine
 10
514.0
 20
594.75
 30
0.0
 11
516.0
 21
594.75
 31
0.0
  0
LINE
  5
4F
330
1F
100
AcDbEntity
  8
_DEFAULT_CAD_LAYER
 62
    56
370
     0
100
AcDbLine
 10
518.0
 20
594.75
 30
0.0
 11
518.1787361673737
 21
594.75
 31
0.0
  0
LINE
  5
50
330
1F
100
AcDbEntity
  8
_DEFAULT_CAD_LAYER
 62
    56
370
     0
100
AcDbLine
 10
508.5419603462131
 20
596.75
 30
0.0
 11
510.0
 21
596.75
 31
0.0
  0
LINE
  5
51
330
1F
100
AcDbEntity
  8
_DEFAULT_CAD_LAYER
 62
    56
370
     0
100
AcDbLine
 10
512.0
 20
596.75
 30
0.0
 11
514.0
 21
596.75
 31
0.0
  0
LINE
  5
52
330
1F
100
AcDbEntity
  8
_DEFAULT_CAD_LAYER
 62
    56
370
     0
100
AcDbLine
 10
516.0
 20
596.75
 30
0.0
 11
518.0
 21
596.75
 31
0.0
  0
LINE
  5
53
330
1F
100
AcDbEntity
  8
_DEFAULT_CAD_LAYER
 62
    56
370
     0
100
AcDbLine
 10
504.0
 20
593.5
 30
0.0
 11
506.0
 21
593.5
 31
0.0
  0
LINE
  5
54
330
1F
100
AcDbEntity
  8
_DEFAULT_CAD_LAYER
 62
    56
370
     0
100
AcDbLine
 10
508.0
 20
593.5
 30
0.0
 11
510.0
 21
593.5
 31
0.0
  0
LINE
  5
55
330
1F
100
AcDbEntity
  8
_DEFAULT_CAD_LAYER
 62
    56
370
     0
100
AcDbLine
 10
512.0
 20
593.5
 30
0.0
 11
514.0
 21
593.5
 31
0.0
  0
LINE
  5
56
330
1F
100
AcDbEntity
  8
_DEFAULT_CAD_LAYER
 62
    56
370
     0
100
AcDbLine
 10
516.0
 20
593.5
 30
0.0
 11
518.0
 21
593.5
 31
0.0
  0
LINE
  5
57
330
1F
100
AcDbEntity
  8
_DEFAULT_CAD_LAYER
 62
    56
370
     0
100
AcDbLine
 10
502.6704442924382
 20
595.5
 30
0.0
 11
504.0
 21
595.5
 31
0.0
  0
LINE
  5
58
330
1F
100
AcDbEntity
  8
_DEFAULT_CAD_LAYER
 62
    56
370
     0
100
AcDbLine
 10
506.0
 20
595.5
 30
0.0
 11
508.0
 21
595.5
 31
0.0
  0
LINE
  5
59
330
1F
100
AcDbEntity
  8
_DEFAULT_CAD_LAYER
 62
    56
370
     0
100
AcDbLine
 10
510.0
 20
595.5
 30
0.0
 11
512.0
 21
595.5
 31
0.0
  0
LINE
  5
5A
330
1F
100
AcDbEntity
  8
_DEFAULT_CAD_LAYER
 62
    56
370
     0
100
AcDbLine
 10
514.0
 20
595.5
 30
0.0
 11
516.0
 21
595.5
 31
0.0
  0
LINE
  5
5B
330
1F
100
AcDbEntity
  8
_DEFAULT_CAD_LAYER
 62
    56
370
     0
100
AcDbLine
 10
518.0
 20
595.5
 30
0.0
 11
518.1787361673737
 21
595.5
 31
0.0
  0
LINE
  5
5C
330
1F
100
AcDbEntity
  8
_DEFAULT_CAD_LAYER
 62
    56
370
     0
100
AcDbLine
 10
516.0
 20
597.5
 30
0.0
 11
518.0
 21
597.5
 31
0.0
  0
LINE
  5
5D
330
1F
100
AcDbEntity
  8
_DEFAULT_CAD_LAYER
 62
    56
370
     0
100
AcDbLine
 10
504.25
 20
593.75
 30
0.0
 11
504.25
 21
595.75
 31
0.0
  0
LINE
  5
5E
330
1F
100
AcDbEntity
  8
_DEFAULT_CAD_LAYER
 62
    56
370
     0
100
AcDbLine
 10
506.25
 20
592.2385879555384
 30
0.0
 11
506.25
 21
593.75
 31
0.0
  0
LINE
  5
5F
330
1F
100
AcDbEntity
  8
_DEFAULT_CAD_LAYER
 62
    56
370
     0
100
AcDbLine
 10
506.25
 20
595.75
 30
0.0
 11
506.25
 21
596.4482576960497
 31
0.0
  0
LINE
  5
60
330
1F
100
AcDbEntity
  8
_DEFAULT_CAD_LAYER
 62
    56
370
     0
100
AcDbLine
 10
508.2500000000001
 20
593.75
 30
0.0
 11
508.25
 21
595.75
 31
0.0
  0
LINE
  5
61
330
1F
100
AcDbEntity
  8
_DEFAULT_CAD_LAYER
 62
    56
370
     0
100
AcDbLine
 10
510.25
 20
592.2385879555384
 30
0.0
 11
510.25
 21
593.75
 31
0.0
  0
LINE
  5
62
330
1F
100
AcDbEntity
  8
_DEFAULT_CAD_LAYER
 62
    56
370
     0
100
AcDbLine
 10
510.25
 20
595.75
 30
0.0
 11
510.25
 21
596.9748676863993
 31
0.0
  0
LINE
  5
63
330
1F
100
AcDbEntity
  8
_DEFAULT_CAD_LAYER
 62
    56
370
     0
100
AcDbLine
 10
512.25
 20
593.75
 30
0.0
 11
512.25
 21
595.75
 31
0.0
  0
LINE
  5
64
330
1F
100
AcDbEntity
  8
_DEFAULT_CAD_LAYER
 62
    56
370
     0
100
AcDbLine
 10
514.25
 20
592.2385879555384
 30
0.0
 11
514.25
 21
593.75
 31
0.0
  0
LINE
  5
65
330
1F
100
AcDbEntity
  8
_DEFAULT_CAD_LAYER
 62
    56
370
     0
100
AcDbLine
 10
514.25
 20
595.75
 30
0.0
 11
514.25
 21
597.5014776767489
 31
0.0
  0
LINE
  5
66
330
1F
100
AcDbEntity
  8
_DEFAULT_CAD_LAYER
 62
    56
370
     0
100
AcDbLine
 10
516.25
 20
593.75
 30
0.0
 11
516.25
 21
595.75
 31
0.0
  0
LINE
  5
67
330
1F
100
AcDbEntity
  8
_DEFAULT_CAD_LAYER
 62
    56
370
     0
100
AcDbLine
 10
516.25
 20
597.75
 30
0.0
 11
516.25
 21
597.7647826719237
 31
0.0
  0
LINE
  5
68
330
1F
100
AcDbEntity
  8
_DEFAULT_CAD_LAYER
 62
    56
370
     0
100
AcDbLine
 10
503.0
 20
595.75
 30
0.0
 11
503.0
 21
596.0203870788907
 31
0.0
  0
LINE
  5
69
330
1F
100
AcDbEntity
  8
_DEFAULT_CAD_LAYER
 62
    56
370
     0
100
AcDbLine
 10
505.0
 20
593.75
 30
0.0
 11
505.0
 21
595.75
 31
0.0
  0
LINE
  5
6A
330
1F
100
AcDbEntity
  8
_DEFAULT_CAD_LAYER
 62
    56
370
     0
100
AcDbLine
 10
507.0
 20
592.2385879555384
 30
0.0
 11
507.0
 21
593.75
 31
0.0
  0
LINE
  5
6B
330
1F
100
AcDbEntity
  8
_DEFAULT_CAD_LAYER
 62
    56
370
     0
100
AcDbLine
 10
507.0
 20
595.75
 30
0.0
 11
507.0
 21
596.5469970692403
 31
0.0
  0
LINE
  5
6C
330
1F
100
AcDbEntity
  8
_DEFAULT_CAD_LAYER
 62
    56
370
     0
100
AcDbLine
 10
509.0
 20
593.75
 30
0.0
 11
509.0
 21
595.75
 31
0.0
  0
LINE
  5
6D
330
1F
100
AcDbEntity
  8
_DEFAULT_CAD_LAYER
 62
    56
370
     0
100
AcDbLine
 10
511.0
 20
592.2385879555384
 30
0.0
 11
511.0
 21
593.75
 31
0.0
  0
LINE
  5
6E
330
1F
100
AcDbEntity
  8
_DEFAULT_CAD_LAYER
 62
    56
370
     0
100
AcDbLine
 10
511.0
 20
595.75
 30
0.0
 11
511.0
 21
597.0736070595899
 31
0.0
  0
LINE
  5
6F
330
1F
100
AcDbEntity
  8
_DEFAULT_CAD_LAYER
 62
    56
370
     0
100
AcDbLine
 10
513.0
 20
593.75
 30
0.0
 11
513.0
 21
595.75
 31
0.0
  0
LINE
  5
70
330
1F
100
AcDbEntity
  8
_DEFAULT_CAD_LAYER
 62
    56
370
     0
100
AcDbLine
 10
515.0
 20
592.2385879555384
 30
0.0
 11
515.0
 21
593.75
 31
0.0
  0
LINE
  5
71
330
1F
100
AcDbEntity
  8
_DEFAULT_CAD_LAYER
 62
    56
370
     0
100
AcDbLine
 10
515.0
 20
595.75
 30
0.0
 11
515.0
 21
597.6002170499395
 31
0.0
  0
LINE
  5
72
330
1F
100
AcDbEntity
  8
_DEFAULT_CAD_LAYER
 62
    56
370
     0
100
AcDbLine
 10
517.0
 20
593.75
 30
0.0
 11
517.0
 21
595.75
 31
0.0
  0
LINE
  5
73
330
1F
100
AcDbEntity
  8
_DEFAULT_CAD_LAYER
 62
    56
370
     0
100
AcDbLine
 10
517.0
 20
597.75
 30
0.0
 11
517.0
 21
597.8635220451142
 31
0.0
  0
LINE
  5
74
330
1F
100
AcDbEntity
  8
_DEFAULT_CAD_LAYER
 62
    56
370
     0
100
AcDbLine
 10
503.75
 20
593.2209379507029
 30
0.0
 11
503.75
 21
593.75
 31
0.0
  0
LINE
  5
75
330
1F
100
AcDbEntity
  8
_DEFAULT_CAD_LAYER
 62
    56
370
     0
100
AcDbLine
 10
503.75
 20
595.75
 30
0.0
 11
503.75
 21
596.1191264520813
 31
0.0
  0
LINE
  5
76
330
1F
100
AcDbEntity
  8
_DEFAULT_CAD_LAYER
 62
    56
370
     0
100
AcDbLine
 10
505.75
 20
593.75
 30
0.0
 11
505.75
 21
595.75
 31
0.0
  0
LINE
  5
77
330
1F
100
AcDbEntity
  8
_DEFAULT_CAD_LAYER
 62
    56
370
     0
100
AcDbLine
 10
507.75
 20
592.2385879555384
 30
0.0
 11
507.75
 21
593.75
 31
0.0
  0
LINE
  5
78
330
1F
100
AcDbEntity
  8
_DEFAULT_CAD_LAYER
 62
    56
370
     0
100
AcDbLine
 10
507.75
 20
595.75
 30
0.0
 11
507.75
 21
596.6457364424309
 31
0.0
  0
LINE
  5
79
330
1F
100
AcDbEntity
  8
_DEFAULT_CAD_LAYER
 62
    56
370
     0
100
AcDbLine
 10
509.75
 20
593.75
 30
0.0
 11
509.75
 21
595.75
 31
0.0
  0
LINE
  5
7A
330
1F
100
AcDbEntity
  8
_DEFAULT_CAD_LAYER
 62
    56
370
     0
100
AcDbLine
 10
511.75
 20
592.2385879555384
 30
0.0
 11
511.75
 21
593.75
 31
0.0
  0
LINE
  5
7B
330
1F
100
AcDbEntity
  8
_DEFAULT_CAD_LAYER
 62
    56
370
     0
100
AcDbLine
 10
511.75
 20
595.75
 30
0.0
 11
511.75
 21
597.1723464327805
 31
0.0
  0
LINE
  5
7C
330
1F
100
AcDbEntity
  8
_DEFAULT_CAD_LAYER
 62
    56
370
     0
100
AcDbLine
 10
513.75
 20
593.75
 30
0.0
 11
513.75
 21
595.75
 31
0.0
  0
LINE
  5
7D
330
1F
100
AcDbEntity
  8
_DEFAULT_CAD_LAYER
 62
    56
370
     0
100
AcDbLine
 10
515.75
 20
592.2385879555384
 30
0.0
 11
515.75
 21
593.75
 31
0.0
  0
LINE
  5
7E
330
1F
100
AcDbEntity
  8
_DEFAULT_CAD_LAYER
 62
    56
370
     0
100
AcDbLine
 10
515.75
 20
595.75
 30
0.0
 11
515.75
 21
597.6989564231301
 31
0.0
  0
LINE
  5
7F
330
1F
100
AcDbEntity
  8
_DEFAULT_CAD_LAYER
 62
    56
370
     0
100
AcDbLine
 10
517.75
 20
593.75
 30
0.0
 11
517.75
 21
595.75
 31
0.0
  0
LINE
  5
80
330
1F
100
AcDbEntity
  8
_DEFAULT_CAD_LAYER
 62
    56
370
     0
100
AcDbLine
 10
517.75
 20
597.75
 30
0.0
 11
517.75
 21
597.9622614183048
 31
0.0
  0
LWPOLYLINE
  5
81
330
1F
100
AcDbEntity
  8
_DEFAULT_CAD_LAYER
 62
     7
370
    18
100
AcDbPolyline
 90
        4
 70
     1
 43
0.0
 10
518.1787361673737
 20
598.0187056055456
 10
518.1787361673737
 20
592.2385879555384
 10
504.2153236819201
 20
592.2385879555384
 10
502.4577601535277
 20
595.9489998488112
  0
LINE
  5
82
330
1F
100
AcDbEntity
  8
_DEFAULT_CAD_LAYER
100
AcDbLine
 10
551.5959404485998
 20
616.8257017953491
 30
0.0
 11
551.5959404485998
 21
616.2007017953491
 31
0.0
  0
LINE
  5
83
330
1F
100
AcDbEntity
  8
_DEFAULT_CAD_LAYER
100
AcDbLine
 10
551.5959404485998
 20
616.2007017953491
 30
0.0
 11
518.784116108334
 21
616.2007017953491
 31
0.0
  0
LINE
  5
84
330
1F
100
AcDbEntity
  8
_DEFAULT_CAD_LAYER
100
AcDbLine
 10
518.784116108334
 20
616.2007017953491
 30
0.0
 11
518.784116108334
 21
616.8257017953491
 31
0.0
  0
LINE
  5
85
330
1F
100
AcDbEntity
  8
_DEFAULT_CAD_LAYER
100
AcDbLine
 10
518.784116108334
 20
616.8257017953491
 30
0.0
 11
551.5959404485998
 21
616.8257017953491
 31
0.0
  0
INSERT
  5
8C
330
1F
100
AcDbEntity
  8
_DEFAULT_CAD_LAYER
  6
Continuous
370
     0
100
AcDbBlockReference
  2
block9_0
 10
524.0239532731533
 20
591.3149392063913
 30
0.0
 41
1.542372881355957
1001
CHIEFARC-LNWT
1070
     0
  0
LINE
  5
8D
330
1F
100
AcDbEntity
  8
_DEFAULT_CAD_LAYER
 62
   252
370
     0
100
AcDbLine
 10
527.7130481061723
 20
601.3774349067172
 30
0.0
 11
527.9540934598048
 21
601.6647015728869
 31
0.0
  0
LINE
  5
8E
330
1F
100
AcDbEntity
  8
_DEFAULT_CAD_LAYER
 62
   252
370
     0
100
AcDbLine
 10
524.1267471931687
 20
601.6911955816304
 30
0.0
 11
524.3677925468011
 21
601.9784622477998
 31
0.0
  0
LINE
  5
8F
330
1F
100
AcDbEntity
  8
_DEFAULT_CAD_LAYER
 62
   252
370
     0
100
AcDbLine
 10
527.0192914367581
 20
605.1383955756658
 30
0.0
 11
527.2603367903905
 21
605.4256622418353
 31
0.0
  0
LINE
  5
90
330
1F
100
AcDbEntity
  8
_DEFAULT_CAD_LAYER
 62
   252
370
     0
100
AcDbLine
 10
520.5404462801647
 20
602.0049562565432
 30
0.0
 11
520.7814916337971
 21
602.2922229227129
 31
0.0
  0
LINE
  5
91
330
1F
100
AcDbEntity
  8
_DEFAULT_CAD_LAYER
 62
   252
370
     0
100
AcDbLine
 10
523.4329905237541
 20
605.4521562505787
 30
0.0
 11
523.6740358773866
 21
605.7394229167483
 31
0.0
  0
LINE
  5
92
330
1F
100
AcDbEntity
  8
_DEFAULT_CAD_LAYER
 62
   252
370
     0
100
AcDbLine
 10
519.8466896107504
 20
605.7659169254916
 30
0.0
 11
520.0877349643829
 21
606.0531835916613
 31
0.0
  0
LINE
  5
93
330
1F
100
AcDbEntity
  8
_DEFAULT_CAD_LAYER
 62
   252
370
     0
100
AcDbLine
 10
527.7130483652063
 20
601.3774350131382
 30
0.0
 11
528.0119067746339
 21
601.3512882903138
 31
0.0
  0
LINE
  5
94
330
1F
100
AcDbEntity
  8
_DEFAULT_CAD_LAYER
 62
   252
370
     0
100
AcDbLine
 10
524.1267474520761
 20
601.6911956870297
 30
0.0
 11
524.4256058615035
 21
601.6650489642054
 31
0.0
  0
LINE
  5
95
330
1F
100
AcDbEntity
  8
_DEFAULT_CAD_LAYER
 62
   252
370
     0
100
AcDbLine
 10
520.5404465389457
 20
602.0049563609213
 30
0.0
 11
520.8393049483733
 21
601.9788096380969
 31
0.0
  0
LINE
  5
96
330
1F
100
AcDbEntity
  8
_DEFAULT_CAD_LAYER
 62
   252
370
     0
100
AcDbLine
 10
527.0192916971414
 20
605.1383956816381
 30
0.0
 11
527.318150106569
 21
605.112248958814
 31
0.0
  0
LINE
  5
97
330
1F
100
AcDbEntity
  8
_DEFAULT_CAD_LAYER
 62
   252
370
     0
100
AcDbLine
 10
523.432990784011
 20
605.4521563555297
 30
0.0
 11
523.7318491934386
 21
605.4260096327055
 31
0.0
  0
LINE
  5
98
330
1F
100
AcDbEntity
  8
_DEFAULT_CAD_LAYER
 62
   252
370
     0
100
AcDbLine
 10
519.8466898708808
 20
605.7659170294213
 30
0.0
 11
520.1455482803083
 21
605.7397703065969
 31
0.0
  0
LINE
  5
99
330
1F
100
AcDbEntity
  8
_DEFAULT_CAD_LAYER
 62
   252
370
     0
100
AcDbLine
 10
520.8397699580462
 20
601.9783986388956
 30
0.0
 11
520.7819571487923
 21
602.2918120633321
 31
0.0
  0
LINE
  5
9A
330
1F
100
AcDbEntity
  8
_DEFAULT_CAD_LAYER
 62
   252
370
     0
100
AcDbLine
 10
520.1460162270464
 20
605.7393598403099
 30
0.0
 11
520.0882034177927
 21
606.0527732647466
 31
0.0
  0
LINE
  5
9B
330
1F
100
AcDbEntity
  8
_DEFAULT_CAD_LAYER
 62
   252
370
     0
100
AcDbLine
 10
524.426070597616
 20
601.6646351477859
 30
0.0
 11
524.3682577883621
 21
601.9780485722225
 31
0.0
  0
LINE
  5
9C
330
1F
100
AcDbEntity
  8
_DEFAULT_CAD_LAYER
 62
   252
370
     0
100
AcDbLine
 10
523.7323168666162
 20
605.4255963492003
 30
0.0
 11
523.6745040573625
 21
605.7390097736369
 31
0.0
  0
LINE
  5
9D
330
1F
100
AcDbEntity
  8
_DEFAULT_CAD_LAYER
 62
   252
370
     0
100
AcDbLine
 10
528.0123712371858
 20
601.3508716566763
 30
0.0
 11
527.9545584279319
 21
601.6642850811129
 31
0.0
  0
LINE
  5
9E
330
1F
100
AcDbEntity
  8
_DEFAULT_CAD_LAYER
 62
   252
370
     0
100
AcDbLine
 10
527.318617506186
 20
605.1118328580908
 30
0.0
 11
527.2608046969323
 21
605.4252462825273
 31
0.0
  0
LINE
  5
9F
330
1F
100
AcDbEntity
  8
_DEFAULT_CAD_LAYER
 62
   252
370
     0
100
AcDbLine
 10
527.4541446114212
 20
601.8331070041961
 30
0.0
 11
527.8435870885772
 21
602.2389897544905
 31
0.0
  0
LINE
  5
A0
330
1F
100
AcDbEntity
  8
_DEFAULT_CAD_LAYER
 62
   252
370
     0
100
AcDbLine
 10
522.1179393682928
 20
602.6607020758413
 30
0.0
 11
522.5073818454488
 21
603.0665848261356
 31
0.0
  0
LINE
  5
A1
330
1F
100
AcDbEntity
  8
_DEFAULT_CAD_LAYER
 62
   252
370
     0
100
AcDbLine
 10
522.5630936217383
 20
602.5913203575403
 30
0.0
 11
522.5078526994062
 21
603.0661694070138
 31
0.0
  0
LINE
  5
A2
330
1F
100
AcDbEntity
  8
_DEFAULT_CAD_LAYER
 62
   252
370
     0
100
AcDbLine
 10
527.8992981204015
 20
601.7637219527323
 30
0.0
 11
527.8440571980693
 21
602.2385710022061
 31
0.0
  0
LINE
  5
A3
330
1F
100
AcDbEntity
  8
_DEFAULT_CAD_LAYER
 62
   252
370
     0
100
AcDbLine
 10
527.4541445841561
 20
601.8331071254797
 30
0.0
 11
527.8988283544411
 21
601.7641408696358
 31
0.0
  0
LINE
  5
A4
330
1F
100
AcDbEntity
  8
_DEFAULT_CAD_LAYER
 62
   252
370
     0
100
AcDbLine
 10
522.1179393407366
 20
602.6607021956088
 30
0.0
 11
522.5626231110216
 21
602.5917359397647
 31
0.0
  0
LINE
  5
A5
330
1F
100
AcDbEntity
  8
_DEFAULT_CAD_LAYER
 62
   252
370
     0
100
AcDbLine
 10
527.6876198014118
 20
601.1208923042416
 30
0.0
 11
528.0377124613482
 21
601.2552802853211
 31
0.0
  0
LINE
  5
A6
330
1F
100
AcDbEntity
  8
_DEFAULT_CAD_LAYER
 62
   252
370
     0
100
AcDbLine
 10
520.501972621582
 20
601.5213309846145
 30
0.0
 11
520.8520652815184
 21
601.655718965694
 31
0.0
  0
LINE
  5
A7
330
1F
100
AcDbEntity
  8
_DEFAULT_CAD_LAYER
 62
   252
370
     0
100
AcDbLine
 10
524.7030845408194
 20
603.1339867575683
 30
0.0
 11
525.053177200756
 21
603.2683747386478
 31
0.0
  0
LINE
  5
A8
330
1F
100
AcDbEntity
  8
_DEFAULT_CAD_LAYER
 62
   252
370
     0
100
AcDbLine
 10
528.9041964600568
 20
604.7466425305222
 30
0.0
 11
529.2542891199932
 21
604.8810305116017
 31
0.0
  0
LINE
  5
A9
330
1F
100
AcDbEntity
  8
_DEFAULT_CAD_LAYER
 62
   252
370
     0
100
AcDbLine
 10
521.718549280227
 20
605.147081210895
 30
0.0
 11
522.0686419401635
 21
605.2814691919745
 31
0.0
  0
LINE
  5
AA
330
1F
100
AcDbEntity
  8
_DEFAULT_CAD_LAYER
 62
   252
370
     0
100
AcDbLine
 10
525.9196611994644
 20
606.7597369838488
 30
0.0
 11
526.2697538594009
 21
606.8941249649282
 31
0.0
  0
LINE
  5
AB
330
1F
100
AcDbEntity
  8
_DEFAULT_CAD_LAYER
 62
   252
370
     0
100
AcDbLine
 10
518.7340140196349
 20
607.1601756642217
 30
0.0
 11
519.0841066795713
 21
607.2945636453011
 31
0.0
  0
LINE
  5
AC
330
1F
100
AcDbEntity
  8
_DEFAULT_CAD_LAYER
 62
   252
370
     0
100
AcDbLine
 10
520.5019728803318
 20
601.5213308330942
 30
0.0
 11
520.7506841520983
 21
601.353572962053
 31
0.0
  0
LINE
  5
AD
330
1F
100
AcDbEntity
  8
_DEFAULT_CAD_LAYER
 62
   252
370
     0
100
AcDbLine
 10
527.6876200623365
 20
601.1208921533397
 30
0.0
 11
527.936331334103
 21
600.9531342822985
 31
0.0
  0
LINE
  5
AE
330
1F
100
AcDbEntity
  8
_DEFAULT_CAD_LAYER
 62
   252
370
     0
100
AcDbLine
 10
524.7030848011383
 20
603.1339866058345
 30
0.0
 11
524.9517960729048
 21
602.9662287347933
 31
0.0
  0
LINE
  5
AF
330
1F
100
AcDbEntity
  8
_DEFAULT_CAD_LAYER
 62
   252
370
     0
100
AcDbLine
 10
521.7185495399401
 20
605.1470810583291
 30
0.0
 11
521.9672608117066
 21
604.979323187288
 31
0.0
  0
LINE
  5
B0
330
1F
100
AcDbEntity
  8
_DEFAULT_CAD_LAYER
 62
   252
370
     0
100
AcDbLine
 10
518.734014278742
 20
607.1601755108238
 30
0.0
 11
518.9827255505085
 21
606.9924176397825
 31
0.0
  0
LINE
  5
B1
330
1F
100
AcDbEntity
  8
_DEFAULT_CAD_LAYER
 62
   252
370
     0
100
AcDbLine
 10
528.9041967219443
 20
604.746642378574
 30
0.0
 11
529.1529079937109
 21
604.5788845075328
 31
0.0
  0
LINE
  5
B2
330
1F
100
AcDbEntity
  8
_DEFAULT_CAD_LAYER
 62
   252
370
     0
100
AcDbLine
 10
525.9196614607462
 20
606.7597368310687
 30
0.0
 11
526.1683727325128
 21
606.5919789600275
 31
0.0
  0
LINE
  5
B3
330
1F
100
AcDbEntity
  8
_DEFAULT_CAD_LAYER
 62
   252
370
     0
100
AcDbLine
 10
527.9367962186901
 20
600.952720700109
 30
0.0
 11
528.0381778396729
 21
601.2548664637031
 31
0.0
  0
LINE
  5
B4
330
1F
100
AcDbEntity
  8
_DEFAULT_CAD_LAYER
 62
   252
370
     0
100
AcDbLine
 10
529.1533757054752
 20
604.5784699675232
 30
0.0
 11
529.254757326458
 21
604.8806157311172
 31
0.0
  0
LINE
  5
B5
330
1F
100
AcDbEntity
  8
_DEFAULT_CAD_LAYER
 62
   252
370
     0
100
AcDbLine
 10
524.9522625625677
 20
602.9658174839735
 30
0.0
 11
525.0536441835505
 21
603.2679632475674
 31
0.0
  0
LINE
  5
B6
330
1F
100
AcDbEntity
  8
_DEFAULT_CAD_LAYER
 62
   252
370
     0
100
AcDbLine
 10
526.168842049353
 20
606.5915667513875
 30
0.0
 11
526.2702236703358
 21
606.8937125149816
 31
0.0
  0
LINE
  5
B7
330
1F
100
AcDbEntity
  8
_DEFAULT_CAD_LAYER
 62
   252
370
     0
100
AcDbLine
 10
520.7511494196604
 20
601.3531650004237
 30
0.0
 11
520.8525310406432
 21
601.6553107640177
 31
0.0
  0
LINE
  5
B8
330
1F
100
AcDbEntity
  8
_DEFAULT_CAD_LAYER
 62
   252
370
     0
100
AcDbLine
 10
521.9677289064455
 20
604.9789142678378
 30
0.0
 11
522.0691105274282
 21
605.2810600314318
 31
0.0
  0
LINE
  5
B9
330
1F
100
AcDbEntity
  8
_DEFAULT_CAD_LAYER
 62
   252
370
     0
100
AcDbLine
 10
518.9831952503232
 20
606.9920110517023
 30
0.0
 11
519.0845768713059
 21
607.2941568152963
 31
0.0
  0
LINE
  5
BA
330
1F
100
AcDbEntity
  8
_DEFAULT_CAD_LAYER
 62
   252
370
     0
100
AcDbLine
 10
528.5998170968052
 20
599.746866704981
 30
0.0
 11
528.5998170968052
 21
599.746866704981
 31
0.0
  0
LINE
  5
BB
330
1F
100
AcDbEntity
  8
_DEFAULT_CAD_LAYER
 62
   252
370
     0
100
AcDbLine
 10
529.2176978103151
 20
600.2209832518089
 30
0.0
 11
529.2176978103151
 21
600.2209832518089
 31
0.0
  0
LINE
  5
BC
330
1F
100
AcDbEntity
  8
_DEFAULT_CAD_LAYER
 62
   252
370
     0
100
AcDbLine
 10
529.8526365803331
 20
600.7081889057579
 30
0.0
 11
529.8526365803331
 21
600.7081889057579
 31
0.0
  0
LINE
  5
BD
330
1F
100
AcDbEntity
  8
_DEFAULT_CAD_LAYER
 62
   252
370
     0
100
AcDbLine
 10
526.9119147235867
 20
600.0695100043189
 30
0.0
 11
526.9119147235867
 21
600.0695100043189
 31
0.0
  0
LINE
  5
BE
330
1F
100
AcDbEntity
  8
_DEFAULT_CAD_LAYER
 62
   252
370
     0
100
AcDbLine
 10
528.3622556090622
 20
601.1823957075135
 30
0.0
 11
528.3622556090622
 21
601.1823957075135
 31
0.0
  0
LINE
  5
BF
330
1F
100
AcDbEntity
  8
_DEFAULT_CAD_LAYER
 62
   252
370
     0
100
AcDbLine
 10
529.8526365803331
 20
602.3260052491399
 30
0.0
 11
529.8526365803331
 21
602.3260052491399
 31
0.0
  0
LINE
  5
C0
330
1F
100
AcDbEntity
  8
_DEFAULT_CAD_LAYER
 62
   252
370
     0
100
AcDbLine
 10
526.9727140001728
 20
601.7339792734762
 30
0.0
 11
526.9727140001728
 21
601.7339792734762
 31
0.0
  0
LINE
  5
C1
330
1F
100
AcDbEntity
  8
_DEFAULT_CAD_LAYER
 62
   252
370
     0
100
AcDbLine
 10
528.393069160736
 20
602.8238561206915
 30
0.0
 11
528.393069160736
 21
602.8238561206915
 31
0.0
  0
LINE
  5
C2
330
1F
100
AcDbEntity
  8
_DEFAULT_CAD_LAYER
 62
   252
370
     0
100
AcDbLine
 10
529.8526365803331
 20
603.9438215925231
 30
0.0
 11
529.8526365803331
 21
603.9438215925231
 31
0.0
  0
LINE
  5
C3
330
1F
100
AcDbEntity
  8
_DEFAULT_CAD_LAYER
 62
   252
370
     0
100
AcDbLine
 10
522.2746791749254
 20
599.746866704981
 30
0.0
 11
522.2746791749254
 21
599.746866704981
 31
0.0
  0
LINE
  5
C4
330
1F
100
AcDbEntity
  8
_DEFAULT_CAD_LAYER
 62
   252
370
     0
100
AcDbLine
 10
523.3255982049568
 20
600.5532652389048
 30
0.0
 11
523.3255982049568
 21
600.5532652389048
 31
0.0
  0
LINE
  5
C5
330
1F
100
AcDbEntity
  8
_DEFAULT_CAD_LAYER
 62
   252
370
     0
100
AcDbLine
 10
524.4055303370444
 20
601.3819263090412
 30
0.0
 11
524.4055303370444
 21
601.3819263090412
 31
0.0
  0
LINE
  5
C6
330
1F
100
AcDbEntity
  8
_DEFAULT_CAD_LAYER
 62
   252
370
     0
100
AcDbLine
 10
527.0335132767591
 20
603.3984485426327
 30
0.0
 11
527.0335132767591
 21
603.3984485426327
 31
0.0
  0
LINE
  5
C7
330
1F
100
AcDbEntity
  8
_DEFAULT_CAD_LAYER
 62
   252
370
     0
100
AcDbLine
 10
528.4238827124097
 20
604.4653165338685
 30
0.0
 11
528.4238827124097
 21
604.4653165338685
 31
0.0
  0
LINE
  5
C8
330
1F
100
AcDbEntity
  8
_DEFAULT_CAD_LAYER
 62
   252
370
     0
100
AcDbLine
 10
529.8526365803331
 20
605.5616379359053
 30
0.0
 11
529.8526365803331
 21
605.5616379359053
 31
0.0
  0
LINE
  5
C9
330
1F
100
AcDbEntity
  8
_DEFAULT_CAD_LAYER
 62
   252
370
     0
100
AcDbLine
 10
520.1662998676327
 20
599.746866704981
 30
0.0
 11
520.1662998676327
 21
599.746866704981
 31
0.0
  0
LINE
  5
CA
330
1F
100
AcDbEntity
  8
_DEFAULT_CAD_LAYER
 62
   252
370
     0
100
AcDbLine
 10
522.287040710591
 20
601.3741683882922
 30
0.0
 11
522.287040710591
 21
601.3741683882922
 31
0.0
  0
LINE
  5
CB
330
1F
100
AcDbEntity
  8
_DEFAULT_CAD_LAYER
 62
   252
370
     0
100
AcDbLine
 10
524.4663296136309
 20
603.0463955781979
 30
0.0
 11
524.4663296136309
 21
603.0463955781979
 31
0.0
  0
LINE
  5
CC
330
1F
100
AcDbEntity
  8
_DEFAULT_CAD_LAYER
 62
   252
370
     0
100
AcDbLine
 10
527.0943125533456
 20
605.0629178117892
 30
0.0
 11
527.0943125533456
 21
605.0629178117892
 31
0.0
  0
LINE
  5
CD
330
1F
100
AcDbEntity
  8
_DEFAULT_CAD_LAYER
 62
   252
370
     0
100
AcDbLine
 10
528.4546962640837
 20
606.1067769470455
 30
0.0
 11
528.4546962640837
 21
606.1067769470455
 31
0.0
  0
LINE
  5
CE
330
1F
100
AcDbEntity
  8
_DEFAULT_CAD_LAYER
 62
   252
370
     0
100
AcDbLine
 10
529.8526365803331
 20
607.1794542792875
 30
0.0
 11
529.8526365803331
 21
607.1794542792875
 31
0.0
  0
LINE
  5
CF
330
1F
100
AcDbEntity
  8
_DEFAULT_CAD_LAYER
 62
   252
370
     0
100
AcDbLine
 10
519.2830633108922
 20
600.6869518016067
 30
0.0
 11
519.2830633108922
 21
600.6869518016067
 31
0.0
  0
LINE
  5
D0
330
1F
100
AcDbEntity
  8
_DEFAULT_CAD_LAYER
 62
   252
370
     0
100
AcDbLine
 10
521.8693952002416
 20
602.6715140601751
 30
0.0
 11
521.8693952002416
 21
602.6715140601751
 31
0.0
  0
LINE
  5
D1
330
1F
100
AcDbEntity
  8
_DEFAULT_CAD_LAYER
 62
   252
370
     0
100
AcDbLine
 10
524.5271288902172
 20
604.7108648473544
 30
0.0
 11
524.5271288902172
 21
604.7108648473544
 31
0.0
  0
LINE
  5
D2
330
1F
100
AcDbEntity
  8
_DEFAULT_CAD_LAYER
 62
   252
370
     0
100
AcDbLine
 10
527.155111829932
 20
606.7273870809457
 30
0.0
 11
527.155111829932
 21
606.7273870809457
 31
0.0
  0
LINE
  5
D3
330
1F
100
AcDbEntity
  8
_DEFAULT_CAD_LAYER
 62
   252
370
     0
100
AcDbLine
 10
527.5683264052293
 20
607.0444577763976
 30
0.0
 11
527.5683264052293
 21
607.0444577763976
 31
0.0
  0
LINE
  5
D4
330
1F
100
AcDbEntity
  8
_DEFAULT_CAD_LAYER
 62
   252
370
     0
100
AcDbLine
 10
527.9929487448753
 20
607.3702819573068
 30
0.0
 11
527.9929487448753
 21
607.3702819573068
 31
0.0
  0
LINE
  5
D5
330
1F
100
AcDbEntity
  8
_DEFAULT_CAD_LAYER
 62
   252
370
     0
100
AcDbLine
 10
519.3438625874788
 20
602.3514210707633
 30
0.0
 11
519.3438625874788
 21
602.3514210707633
 31
0.0
  0
LINE
  5
D6
330
1F
100
AcDbEntity
  8
_DEFAULT_CAD_LAYER
 62
   252
370
     0
100
AcDbLine
 10
521.9301944768282
 20
604.3359833293317
 30
0.0
 11
521.9301944768282
 21
604.3359833293317
 31
0.0
  0
LINE
  5
D7
330
1F
100
AcDbEntity
  8
_DEFAULT_CAD_LAYER
 62
   252
370
     0
100
AcDbLine
 10
524.5879281668039
 20
606.3753341165109
 30
0.0
 11
524.5879281668039
 21
606.3753341165109
 31
0.0
  0
LINE
  5
D8
330
1F
100
AcDbEntity
  8
_DEFAULT_CAD_LAYER
 62
   252
370
     0
100
AcDbLine
 10
519.4046618640652
 20
604.0158903399199
 30
0.0
 11
519.4046618640652
 21
604.0158903399199
 31
0.0
  0
LINE
  5
D9
330
1F
100
AcDbEntity
  8
_DEFAULT_CAD_LAYER
 62
   252
370
     0
100
AcDbLine
 10
521.5583530591342
 20
605.668475717669
 30
0.0
 11
521.5583530591342
 21
605.668475717669
 31
0.0
  0
LINE
  5
DA
330
1F
100
AcDbEntity
  8
_DEFAULT_CAD_LAYER
 62
   252
370
     0
100
AcDbLine
 10
523.7715019865824
 20
607.3666846181167
 30
0.0
 11
523.7715019865824
 21
607.3666846181167
 31
0.0
  0
LINE
  5
DB
330
1F
100
AcDbEntity
  8
_DEFAULT_CAD_LAYER
 62
   252
370
     0
100
AcDbLine
 10
519.4654611406515
 20
605.6803596090764
 30
0.0
 11
519.4654611406515
 21
605.6803596090764
 31
0.0
  0
LINE
  5
DC
330
1F
100
AcDbEntity
  8
_DEFAULT_CAD_LAYER
 62
   252
370
     0
100
AcDbLine
 10
520.548174444996
 20
606.5111547477437
 30
0.0
 11
520.548174444996
 21
606.5111547477437
 31
0.0
  0
LINE
  5
DD
330
1F
100
AcDbEntity
  8
_DEFAULT_CAD_LAYER
 62
   252
370
     0
100
AcDbLine
 10
521.6607786074359
 20
607.3648859485215
 30
0.0
 11
521.6607786074359
 21
607.3648859485215
 31
0.0
  0
LINE
  5
DE
330
1F
100
AcDbEntity
  8
_DEFAULT_CAD_LAYER
 62
   252
370
     0
100
AcDbLine
 10
519.5262604172382
 20
607.3448288782329
 30
0.0
 11
519.5262604172382
 21
607.3448288782329
 31
0.0
  0
LINE
  5
DF
330
1F
100
AcDbEntity
  8
_DEFAULT_CAD_LAYER
 62
   252
370
     0
100
AcDbLine
 10
519.537995830858
 20
607.3538337778185
 30
0.0
 11
519.537995830858
 21
607.3538337778185
 31
0.0
  0
LINE
  5
E0
330
1F
100
AcDbEntity
  8
_DEFAULT_CAD_LAYER
 62
   252
370
     0
100
AcDbLine
 10
519.5500552282895
 20
607.3630872789264
 30
0.0
 11
519.5500552282895
 21
607.3630872789264
 31
0.0
  0
LINE
  5
E1
330
1F
100
AcDbEntity
  8
_DEFAULT_CAD_LAYER
 62
   252
370
     0
100
AcDbLine
 10
524.6720827053705
 20
599.746866704981
 30
0.0
 11
524.6720827053705
 21
599.746866704981
 31
0.0
  0
LINE
  5
E2
330
1F
100
AcDbEntity
  8
_DEFAULT_CAD_LAYER
 62
   252
370
     0
100
AcDbLine
 10
524.9615710101579
 20
599.7849785633287
 30
0.0
 11
524.9615710101579
 21
599.7849785633287
 31
0.0
  0
LINE
  5
E3
330
1F
100
AcDbEntity
  8
_DEFAULT_CAD_LAYER
 62
   252
370
     0
100
AcDbLine
 10
525.4443041257327
 20
599.8485315836622
 30
0.0
 11
525.4443041257327
 21
599.8485315836622
 31
0.0
  0
LINE
  5
E4
330
1F
100
AcDbEntity
  8
_DEFAULT_CAD_LAYER
 62
   252
370
     0
100
AcDbLine
 10
526.6960032632171
 20
600.01332090134
 30
0.0
 11
526.6960032632171
 21
600.01332090134
 31
0.0
  0
LINE
  5
E5
330
1F
100
AcDbEntity
  8
_DEFAULT_CAD_LAYER
 62
   252
370
     0
100
AcDbLine
 10
527.879353535188
 20
600.1691119201656
 30
0.0
 11
527.879353535188
 21
600.1691119201656
 31
0.0
  0
LINE
  5
E6
330
1F
100
AcDbEntity
  8
_DEFAULT_CAD_LAYER
 62
   252
370
     0
100
AcDbLine
 10
529.8526365803331
 20
600.4288995615059
 30
0.0
 11
529.8526365803331
 21
600.4288995615059
 31
0.0
  0
LINE
  5
E7
330
1F
100
AcDbEntity
  8
_DEFAULT_CAD_LAYER
 62
   252
370
     0
100
AcDbLine
 10
518.2905960963262
 20
600.7056178057745
 30
0.0
 11
518.2905960963262
 21
600.7056178057745
 31
0.0
  0
LINE
  5
E8
330
1F
100
AcDbEntity
  8
_DEFAULT_CAD_LAYER
 62
   252
370
     0
100
AcDbLine
 10
519.1025597803159
 20
600.8125148527221
 30
0.0
 11
519.1025597803159
 21
600.8125148527221
 31
0.0
  0
LINE
  5
E9
330
1F
100
AcDbEntity
  8
_DEFAULT_CAD_LAYER
 62
   252
370
     0
100
AcDbLine
 10
520.4565411067595
 20
600.9907698760351
 30
0.0
 11
520.4565411067595
 21
600.9907698760351
 31
0.0
  0
LINE
  5
EA
330
1F
100
AcDbEntity
  8
_DEFAULT_CAD_LAYER
 62
   252
370
     0
100
AcDbLine
 10
521.7082402442438
 20
601.1555591937129
 30
0.0
 11
521.7082402442438
 21
601.1555591937129
 31
0.0
  0
LINE
  5
EB
330
1F
100
AcDbEntity
  8
_DEFAULT_CAD_LAYER
 62
   252
370
     0
100
AcDbLine
 10
523.6018999294679
 20
601.4048642208531
 30
0.0
 11
523.6018999294679
 21
601.4048642208531
 31
0.0
  0
LINE
  5
EC
330
1F
100
AcDbEntity
  8
_DEFAULT_CAD_LAYER
 62
   252
370
     0
100
AcDbLine
 10
526.7596518129435
 20
601.820590143074
 30
0.0
 11
526.7596518129435
 21
601.820590143074
 31
0.0
  0
LINE
  5
ED
330
1F
100
AcDbEntity
  8
_DEFAULT_CAD_LAYER
 62
   252
370
     0
100
AcDbLine
 10
528.0113509504279
 20
601.9853794607519
 30
0.0
 11
528.0113509504279
 21
601.9853794607519
 31
0.0
  0
LINE
  5
EE
330
1F
100
AcDbEntity
  8
_DEFAULT_CAD_LAYER
 62
   252
370
     0
100
AcDbLine
 10
528.7016071924531
 20
602.0762534189898
 30
0.0
 11
528.7016071924531
 21
602.0762534189898
 31
0.0
  0
LINE
  5
EF
330
1F
100
AcDbEntity
  8
_DEFAULT_CAD_LAYER
 62
   252
370
     0
100
AcDbLine
 10
529.8526365803331
 20
602.2277893127007
 30
0.0
 11
529.8526365803331
 21
602.2277893127007
 31
0.0
  0
LINE
  5
F0
330
1F
100
AcDbEntity
  8
_DEFAULT_CAD_LAYER
 62
   252
370
     0
100
AcDbLine
 10
518.2905960963262
 20
602.5045075569692
 30
0.0
 11
518.2905960963262
 21
602.5045075569692
 31
0.0
  0
LINE
  5
F1
330
1F
100
AcDbEntity
  8
_DEFAULT_CAD_LAYER
 62
   252
370
     0
100
AcDbLine
 10
519.5956538102614
 20
602.6763216645045
 30
0.0
 11
519.5956538102614
 21
602.6763216645045
 31
0.0
  0
LINE
  5
F2
330
1F
100
AcDbEntity
  8
_DEFAULT_CAD_LAYER
 62
   252
370
     0
100
AcDbLine
 10
521.7718887939702
 20
602.9628284354468
 30
0.0
 11
521.7718887939702
 21
602.9628284354468
 31
0.0
  0
LINE
  5
F3
330
1F
100
AcDbEntity
  8
_DEFAULT_CAD_LAYER
 62
   252
370
     0
100
AcDbLine
 10
523.0235879314546
 20
603.1276177531247
 30
0.0
 11
523.0235879314546
 21
603.1276177531247
 31
0.0
  0
LINE
  5
F4
330
1F
100
AcDbEntity
  8
_DEFAULT_CAD_LAYER
 62
   252
370
     0
100
AcDbLine
 10
524.9172476166787
 20
603.376922780265
 30
0.0
 11
524.9172476166787
 21
603.376922780265
 31
0.0
  0
LINE
  5
F5
330
1F
100
AcDbEntity
  8
_DEFAULT_CAD_LAYER
 62
   252
370
     0
100
AcDbLine
 10
528.0749995001543
 20
603.7926487024858
 30
0.0
 11
528.0749995001543
 21
603.7926487024858
 31
0.0
  0
LINE
  5
F6
330
1F
100
AcDbEntity
  8
_DEFAULT_CAD_LAYER
 62
   252
370
     0
100
AcDbLine
 10
529.3266986376386
 20
603.9574380201637
 30
0.0
 11
529.3266986376386
 21
603.9574380201637
 31
0.0
  0
LINE
  5
F7
330
1F
100
AcDbEntity
  8
_DEFAULT_CAD_LAYER
 62
   252
370
     0
100
AcDbLine
 10
529.5238608497184
 20
603.9833949178138
 30
0.0
 11
529.5238608497184
 21
603.9833949178138
 31
0.0
  0
LINE
  5
F8
330
1F
100
AcDbEntity
  8
_DEFAULT_CAD_LAYER
 62
   252
370
     0
100
AcDbLine
 10
529.8526365803331
 20
604.0266790638954
 30
0.0
 11
529.8526365803331
 21
604.0266790638954
 31
0.0
  0
LINE
  5
F9
330
1F
100
AcDbEntity
  8
_DEFAULT_CAD_LAYER
 62
   252
370
     0
100
AcDbLine
 10
518.2905960963261
 20
604.3033973081639
 30
0.0
 11
518.2905960963261
 21
604.3033973081639
 31
0.0
  0
LINE
  5
FA
330
1F
100
AcDbEntity
  8
_DEFAULT_CAD_LAYER
 62
   252
370
     0
100
AcDbLine
 10
520.0887478402069
 20
604.5401284762869
 30
0.0
 11
520.0887478402069
 21
604.5401284762869
 31
0.0
  0
LINE
  5
FB
330
1F
100
AcDbEntity
  8
_DEFAULT_CAD_LAYER
 62
   252
370
     0
100
AcDbLine
 10
523.087236481181
 20
604.9348869948586
 30
0.0
 11
523.087236481181
 21
604.9348869948586
 31
0.0
  0
LINE
  5
FC
330
1F
100
AcDbEntity
  8
_DEFAULT_CAD_LAYER
 62
   252
370
     0
100
AcDbLine
 10
524.3389356186653
 20
605.0996763125364
 30
0.0
 11
524.3389356186653
 21
605.0996763125364
 31
0.0
  0
LINE
  5
FD
330
1F
100
AcDbEntity
  8
_DEFAULT_CAD_LAYER
 62
   252
370
     0
100
AcDbLine
 10
526.2325953038893
 20
605.3489813396767
 30
0.0
 11
526.2325953038893
 21
605.3489813396767
 31
0.0
  0
LINE
  5
FE
330
1F
100
AcDbEntity
  8
_DEFAULT_CAD_LAYER
 62
   252
370
     0
100
AcDbLine
 10
529.3903471873649
 20
605.7647072618976
 30
0.0
 11
529.3903471873649
 21
605.7647072618976
 31
0.0
  0
LINE
  5
FF
330
1F
100
AcDbEntity
  8
_DEFAULT_CAD_LAYER
 62
   252
370
     0
100
AcDbLine
 10
519.3511725996921
 20
606.2419146049093
 30
0.0
 11
519.3511725996921
 21
606.2419146049093
 31
0.0
  0
LINE
  5
100
330
1F
100
AcDbEntity
  8
_DEFAULT_CAD_LAYER
 62
   252
370
     0
100
AcDbLine
 10
521.244832284916
 20
606.4912196320496
 30
0.0
 11
521.244832284916
 21
606.4912196320496
 31
0.0
  0
LINE
  5
101
330
1F
100
AcDbEntity
  8
_DEFAULT_CAD_LAYER
 62
   252
370
     0
100
AcDbLine
 10
524.4025841683916
 20
606.9069455542705
 30
0.0
 11
524.4025841683916
 21
606.9069455542705
 31
0.0
  0
LINE
  5
102
330
1F
100
AcDbEntity
  8
_DEFAULT_CAD_LAYER
 62
   252
370
     0
100
AcDbLine
 10
525.6542833058761
 20
607.0717348719483
 30
0.0
 11
525.6542833058761
 21
607.0717348719483
 31
0.0
  0
LINE
  5
103
330
1F
100
AcDbEntity
  8
_DEFAULT_CAD_LAYER
 62
   252
370
     0
100
AcDbLine
 10
526.5042156309853
 20
607.1836305853292
 30
0.0
 11
526.5042156309853
 21
607.1836305853292
 31
0.0
  0
LINE
  5
104
330
1F
100
AcDbEntity
  8
_DEFAULT_CAD_LAYER
 62
   252
370
     0
100
AcDbLine
 10
527.9215111574109
 20
607.3702210812025
 30
0.0
 11
527.9215111574109
 21
607.3702210812025
 31
0.0
  0
LINE
  5
105
330
1F
100
AcDbEntity
  8
_DEFAULT_CAD_LAYER
 62
   252
370
     0
100
AcDbLine
 10
520.7597730875411
 20
601.0600312947014
 30
0.0
 11
520.7597730875411
 21
601.0600312947014
 31
0.0
  0
LINE
  5
106
330
1F
100
AcDbEntity
  8
_DEFAULT_CAD_LAYER
 62
   252
370
     0
100
AcDbLine
 10
521.2600778246444
 20
600.7413020253517
 30
0.0
 11
521.2600778246444
 21
600.7413020253517
 31
0.0
  0
LINE
  5
107
330
1F
100
AcDbEntity
  8
_DEFAULT_CAD_LAYER
 62
   252
370
     0
100
AcDbLine
 10
522.8210286044066
 20
599.746866704981
 30
0.0
 11
522.8210286044066
 21
599.746866704981
 31
0.0
  0
LINE
  5
108
330
1F
100
AcDbEntity
  8
_DEFAULT_CAD_LAYER
 62
   252
370
     0
100
AcDbLine
 10
519.5295492578318
 20
603.4314079452602
 30
0.0
 11
519.5295492578318
 21
603.4314079452602
 31
0.0
  0
LINE
  5
109
330
1F
100
AcDbEntity
  8
_DEFAULT_CAD_LAYER
 62
   252
370
     0
100
AcDbLine
 10
520.583788565098
 20
602.7597834348267
 30
0.0
 11
520.583788565098
 21
602.7597834348267
 31
0.0
  0
LINE
  5
10A
330
1F
100
AcDbEntity
  8
_DEFAULT_CAD_LAYER
 62
   252
370
     0
100
AcDbLine
 10
523.8730152037681
 20
600.6643149622739
 30
0.0
 11
523.8730152037681
 21
600.6643149622739
 31
0.0
  0
LINE
  5
10B
330
1F
100
AcDbEntity
  8
_DEFAULT_CAD_LAYER
 62
   252
370
     0
100
AcDbLine
 10
527.0073421061405
 20
600.255166139638
 30
0.0
 11
527.0073421061405
 21
600.255166139638
 31
0.0
  0
LINE
  5
10C
330
1F
100
AcDbEntity
  8
_DEFAULT_CAD_LAYER
 62
   252
370
     0
100
AcDbLine
 10
527.2009999438683
 20
600.1317924904495
 30
0.0
 11
527.2009999438683
 21
600.1317924904495
 31
0.0
  0
LINE
  5
10D
330
1F
100
AcDbEntity
  8
_DEFAULT_CAD_LAYER
 62
   252
370
     0
100
AcDbLine
 10
527.8052123975789
 20
599.746866704981
 30
0.0
 11
527.8052123975789
 21
599.746866704981
 31
0.0
  0
LINE
  5
10E
330
1F
100
AcDbEntity
  8
_DEFAULT_CAD_LAYER
 62
   252
370
     0
100
AcDbLine
 10
518.2993254281225
 20
605.8027845958192
 30
0.0
 11
518.2993254281225
 21
605.8027845958192
 31
0.0
  0
LINE
  5
10F
330
1F
100
AcDbEntity
  8
_DEFAULT_CAD_LAYER
 62
   252
370
     0
100
AcDbLine
 10
519.3535647353887
 20
605.1311600853857
 30
0.0
 11
519.3535647353887
 21
605.1311600853857
 31
0.0
  0
LINE
  5
110
330
1F
100
AcDbEntity
  8
_DEFAULT_CAD_LAYER
 62
   252
370
     0
100
AcDbLine
 10
522.6427913740589
 20
603.035691612833
 30
0.0
 11
522.6427913740589
 21
603.035691612833
 31
0.0
  0
LINE
  5
111
330
1F
100
AcDbEntity
  8
_DEFAULT_CAD_LAYER
 62
   252
370
     0
100
AcDbLine
 10
525.7771182764313
 20
602.6265427901967
 30
0.0
 11
525.7771182764313
 21
602.6265427901967
 31
0.0
  0
LINE
  5
112
330
1F
100
AcDbEntity
  8
_DEFAULT_CAD_LAYER
 62
   252
370
     0
100
AcDbLine
 10
526.7663217482522
 20
601.9963506764121
 30
0.0
 11
526.7663217482522
 21
601.9963506764121
 31
0.0
  0
LINE
  5
113
330
1F
100
AcDbEntity
  8
_DEFAULT_CAD_LAYER
 62
   252
370
     0
100
AcDbLine
 10
529.8526365803331
 20
600.0301512814044
 30
0.0
 11
529.8526365803331
 21
600.0301512814044
 31
0.0
  0
LINE
  5
114
330
1F
100
AcDbEntity
  8
_DEFAULT_CAD_LAYER
 62
   252
370
     0
100
AcDbLine
 10
518.3438461564273
 20
607.3620593983409
 30
0.0
 11
518.3438461564273
 21
607.3620593983409
 31
0.0
  0
LINE
  5
115
330
1F
100
AcDbEntity
  8
_DEFAULT_CAD_LAYER
 62
   252
370
     0
100
AcDbLine
 10
519.088681444758
 20
606.8875469869454
 30
0.0
 11
519.088681444758
 21
606.8875469869454
 31
0.0
  0
LINE
  5
116
330
1F
100
AcDbEntity
  8
_DEFAULT_CAD_LAYER
 62
   252
370
     0
100
AcDbLine
 10
521.4125675443497
 20
605.4070682633916
 30
0.0
 11
521.4125675443497
 21
605.4070682633916
 31
0.0
  0
LINE
  5
117
330
1F
100
AcDbEntity
  8
_DEFAULT_CAD_LAYER
 62
   252
370
     0
100
AcDbLine
 10
524.5468944467221
 20
604.9979194407556
 30
0.0
 11
524.5468944467221
 21
604.9979194407556
 31
0.0
  0
LINE
  5
118
330
1F
100
AcDbEntity
  8
_DEFAULT_CAD_LAYER
 62
   252
370
     0
100
AcDbLine
 10
525.6011337539883
 20
604.3262949303221
 30
0.0
 11
525.6011337539883
 21
604.3262949303221
 31
0.0
  0
LINE
  5
119
330
1F
100
AcDbEntity
  8
_DEFAULT_CAD_LAYER
 62
   252
370
     0
100
AcDbLine
 10
528.8903603926585
 20
602.2308264577695
 30
0.0
 11
528.8903603926585
 21
602.2308264577695
 31
0.0
  0
LINE
  5
11A
330
1F
100
AcDbEntity
  8
_DEFAULT_CAD_LAYER
 62
   252
370
     0
100
AcDbLine
 10
523.3213719117989
 20
607.3663010362189
 30
0.0
 11
523.3213719117989
 21
607.3663010362189
 31
0.0
  0
LINE
  5
11B
330
1F
100
AcDbEntity
  8
_DEFAULT_CAD_LAYER
 62
   252
370
     0
100
AcDbLine
 10
524.3744701280975
 20
606.6954034809056
 30
0.0
 11
524.3744701280975
 21
606.6954034809056
 31
0.0
  0
LINE
  5
11C
330
1F
100
AcDbEntity
  8
_DEFAULT_CAD_LAYER
 62
   252
370
     0
100
AcDbLine
 10
527.6601365629492
 20
604.6022031083282
 30
0.0
 11
527.6601365629492
 21
604.6022031083282
 31
0.0
  0
LINE
  5
11D
330
1F
100
AcDbEntity
  8
_DEFAULT_CAD_LAYER
 62
   252
370
     0
100
AcDbLine
 10
525.8101347894849
 20
607.3684218551579
 30
0.0
 11
525.8101347894849
 21
607.3684218551579
 31
0.0
  0
LINE
  5
11E
330
1F
100
AcDbEntity
  8
_DEFAULT_CAD_LAYER
 62
   252
370
     0
100
AcDbLine
 10
525.9605663292313
 20
607.272586394898
 30
0.0
 11
525.9605663292313
 21
607.272586394898
 31
0.0
  0
LINE
  5
11F
330
1F
100
AcDbEntity
  8
_DEFAULT_CAD_LAYER
 62
   252
370
     0
100
AcDbLine
 10
526.4299127332397
 20
606.9735797588872
 30
0.0
 11
526.4299127332397
 21
606.9735797588872
 31
0.0
  0
LINE
  5
120
330
1F
100
AcDbEntity
  8
_DEFAULT_CAD_LAYER
 62
   252
370
     0
100
AcDbLine
 10
529.5642396356124
 20
606.5644309362511
 30
0.0
 11
529.5642396356124
 21
606.5644309362511
 31
0.0
  0
LINE
  5
121
330
1F
100
AcDbEntity
  8
_DEFAULT_CAD_LAYER
 62
   252
370
     0
100
AcDbLine
 10
529.6342388940398
 20
606.5198364904285
 30
0.0
 11
529.6342388940398
 21
606.5198364904285
 31
0.0
  0
LINE
  5
122
330
1F
100
AcDbEntity
  8
_DEFAULT_CAD_LAYER
 62
   252
370
     0
100
AcDbLine
 10
529.8526365803331
 20
606.3807018194618
 30
0.0
 11
529.8526365803331
 21
606.3807018194618
 31
0.0
  0
LINE
  5
123
330
1F
100
AcDbEntity
  8
_DEFAULT_CAD_LAYER
 62
   252
370
     0
100
AcDbLine
 10
518.2905960963262
 20
602.2385989969607
 30
0.0
 11
518.2905960963262
 21
602.2385989969607
 31
0.0
  0
LINE
  5
124
330
1F
100
AcDbEntity
  8
_DEFAULT_CAD_LAYER
 62
   252
370
     0
100
AcDbLine
 10
519.2964927130758
 20
601.3168645691944
 30
0.0
 11
519.2964927130758
 21
601.3168645691944
 31
0.0
  0
LINE
  5
125
330
1F
100
AcDbEntity
  8
_DEFAULT_CAD_LAYER
 62
   252
370
     0
100
AcDbLine
 10
520.899737166849
 20
599.8477616966314
 30
0.0
 11
520.899737166849
 21
599.8477616966314
 31
0.0
  0
LINE
  5
126
330
1F
100
AcDbEntity
  8
_DEFAULT_CAD_LAYER
 62
   252
370
     0
100
AcDbLine
 10
523.8537115241402
 20
600.31342615358
 30
0.0
 11
523.8537115241402
 21
600.31342615358
 31
0.0
  0
LINE
  5
127
330
1F
100
AcDbEntity
  8
_DEFAULT_CAD_LAYER
 62
   252
370
     0
100
AcDbLine
 10
524.0920799954932
 20
600.0950016923764
 30
0.0
 11
524.0920799954932
 21
600.0950016923764
 31
0.0
  0
LINE
  5
128
330
1F
100
AcDbEntity
  8
_DEFAULT_CAD_LAYER
 62
   252
370
     0
100
AcDbLine
 10
524.4720026667576
 20
599.746866704981
 30
0.0
 11
524.4720026667576
 21
599.746866704981
 31
0.0
  0
LINE
  5
129
330
1F
100
AcDbEntity
  8
_DEFAULT_CAD_LAYER
 62
   252
370
     0
100
AcDbLine
 10
518.2905960963261
 20
605.4110822447435
 30
0.0
 11
518.2905960963261
 21
605.4110822447435
 31
0.0
  0
LINE
  5
12A
330
1F
100
AcDbEntity
  8
_DEFAULT_CAD_LAYER
 62
   252
370
     0
100
AcDbLine
 10
519.3907466240687
 20
604.4029800200612
 30
0.0
 11
519.3907466240687
 21
604.4029800200612
 31
0.0
  0
LINE
  5
12B
330
1F
100
AcDbEntity
  8
_DEFAULT_CAD_LAYER
 62
   252
370
     0
100
AcDbLine
 10
521.144217311363
 20
602.7962201665677
 30
0.0
 11
521.144217311363
 21
602.7962201665677
 31
0.0
  0
LINE
  5
12C
330
1F
100
AcDbEntity
  8
_DEFAULT_CAD_LAYER
 62
   252
370
     0
100
AcDbLine
 10
524.0981916686545
 20
603.2618846235164
 30
0.0
 11
524.0981916686545
 21
603.2618846235164
 31
0.0
  0
LINE
  5
12D
330
1F
100
AcDbEntity
  8
_DEFAULT_CAD_LAYER
 62
   252
370
     0
100
AcDbLine
 10
525.296267340971
 20
602.1640505361408
 30
0.0
 11
525.296267340971
 21
602.1640505361408
 31
0.0
  0
LINE
  5
12E
330
1F
100
AcDbEntity
  8
_DEFAULT_CAD_LAYER
 62
   252
370
     0
100
AcDbLine
 10
527.2058156433092
 20
600.4142718984162
 30
0.0
 11
527.2058156433092
 21
600.4142718984162
 31
0.0
  0
LINE
  5
12F
330
1F
100
AcDbEntity
  8
_DEFAULT_CAD_LAYER
 62
   252
370
     0
100
AcDbLine
 10
519.6224470242049
 20
607.363148968167
 30
0.0
 11
519.6224470242049
 21
607.363148968167
 31
0.0
  0
LINE
  5
130
330
1F
100
AcDbEntity
  8
_DEFAULT_CAD_LAYER
 62
   252
370
     0
100
AcDbLine
 10
520.3033858027263
 20
606.7391835378105
 30
0.0
 11
520.3033858027263
 21
606.7391835378105
 31
0.0
  0
LINE
  5
131
330
1F
100
AcDbEntity
  8
_DEFAULT_CAD_LAYER
 62
   252
370
     0
100
AcDbLine
 10
521.3886974558774
 20
605.7446786365039
 30
0.0
 11
521.3886974558774
 21
605.7446786365039
 31
0.0
  0
LINE
  5
132
330
1F
100
AcDbEntity
  8
_DEFAULT_CAD_LAYER
 62
   252
370
     0
100
AcDbLine
 10
524.3426718131686
 20
606.2103430934525
 30
0.0
 11
524.3426718131686
 21
606.2103430934525
 31
0.0
  0
LINE
  5
133
330
1F
100
AcDbEntity
  8
_DEFAULT_CAD_LAYER
 62
   252
370
     0
100
AcDbLine
 10
525.5407474854851
 20
605.1125090060771
 30
0.0
 11
525.5407474854851
 21
605.1125090060771
 31
0.0
  0
LINE
  5
134
330
1F
100
AcDbEntity
  8
_DEFAULT_CAD_LAYER
 62
   252
370
     0
100
AcDbLine
 10
527.4502957878234
 20
603.3627303683526
 30
0.0
 11
527.4502957878234
 21
603.3627303683526
 31
0.0
  0
LINE
  5
135
330
1F
100
AcDbEntity
  8
_DEFAULT_CAD_LAYER
 62
   252
370
     0
100
AcDbLine
 10
526.5403294963214
 20
607.3690440963434
 30
0.0
 11
526.5403294963214
 21
607.3690440963434
 31
0.0
  0
LINE
  5
136
330
1F
100
AcDbEntity
  8
_DEFAULT_CAD_LAYER
 62
   252
370
     0
100
AcDbLine
 10
526.985400779483
 20
606.9612114049226
 30
0.0
 11
526.985400779483
 21
606.9612114049226
 31
0.0
  0
LINE
  5
137
330
1F
100
AcDbEntity
  8
_DEFAULT_CAD_LAYER
 62
   252
370
     0
100
AcDbLine
 10
527.6947759323374
 20
606.3111888382887
 30
0.0
 11
527.6947759323374
 21
606.3111888382887
 31
0.0
  0
LWPOLYLINE
  5
138
330
1F
100
AcDbEntity
  8
_DEFAULT_CAD_LAYER
 62
   252
370
    18
100
AcDbPolyline
 90
        4
 70
     1
 43
0.0
 10
518.2905960963261
 20
599.746866704981
 10
518.2905960963262
 20
607.3620140208817
 10
529.8526365803331
 20
607.371866704981
 10
529.8526365803331
 20
599.746866704981
  0
LINE
  5
139
330
1F
100
AcDbEntity
  8
_DEFAULT_CAD_LAYER
370
    15
100
AcDbLine
 10
516.01487689907
 20
599.2861485983947
 30
0.0
 11
515.7138369530775
 21
598.9851086524021
 31
0.0
  0
INSERT
  5
13A
330
1F
100
AcDbEntity
  8
_DEFAULT_CAD_LAYER
100
AcDbBlockReference
  2
block9_0
 10
524.0239532731533
 20
599.3149392063913
 30
0.0
 41
1.542372881355957
  0
INSERT
  5
149
330
1F
100
AcDbEntity
  8
_DEFAULT_CAD_LAYER
  6
Continuous
370
     0
100
AcDbBlockReference
  2
block59_1
 10
514.6599403414787
 20
635.3140495623152
 30
0.0
 42
1.03955095366202
1001
CHIEFARC-LNWT
1070
     0
  0
LINE
  5
14A
330
1F
100
AcDbEntity
  8
_DEFAULT_CAD_LAYER
 62
    98
370
    13
100
AcDbLine
 10
516.0746354534833
 20
643.1632458703899
 30
0.0
 11
516.0746354534833
 21
599.3330638186345
 31
0.0
1001
CHIEFARC-LNWT
1070
    12
  0
LINE
  5
14B
330
1F
100
AcDbEntity
  8
_DEFAULT_CAD_LAYER
 62
    56
100
AcDbLine
 10
519.7997138970157
 20
598.1717080038663
 30
0.0
 11
499.4750942388526
 21
595.4959210633552
 31
0.0
  0
INSERT
  5
14C
330
1F
100
AcDbEntity
  8
_DEFAULT_CAD_LAYER
100
AcDbBlockReference
  2
block59_1
 10
514.6599403414787
 20
639.3140495623152
 30
0.0
 42
1.03955095366202
  0
INSERT
  5
14D
330
1F
100
AcDbEntity
  8
_DEFAULT_CAD_LAYER
100
AcDbBlockReference
  2
block59_1
 10
514.6599403414787
 20
631.3140495623152
 30
0.0
 42
1.03955095366202
  0
SOLID
  5
14E
330
1F
100
AcDbEntity
  8
_DEFAULT_CAD_LAYER
 62
    33
100
AcDbTrace
 10
519.0020141401315
 20
656.1363168326777
 30
0.0
 11
519.0020141401315
 21
607.422676860027
 31
0.0
 12
518.2520141401317
 22
656.1363168326777
 32
0.0
 13
518.2520141401317
 23
607.422676860027
 33
0.0
  0
LINE
  5
14F
330
1F
100
AcDbEntity
  8
_DEFAULT_CAD_LAYER
 62
     7
100
AcDbLine
 10
519.0020141401315
 20
656.1363168326777
 30
0.0
 11
519.0020141401315
 21
607.422676860027
 31
0.0
  0
LINE
  5
150
330
1F
100
AcDbEntity
  8
_DEFAULT_CAD_LAYER
 62
     7
100
AcDbLine
 10
519.0020141401315
 20
607.422676860027
 30
0.0
 11
518.2520141401317
 21
607.422676860027
 31
0.0
  0
LINE
  5
151
330
1F
100
AcDbEntity
  8
_DEFAULT_CAD_LAYER
 62
     7
100
AcDbLine
 10
518.2520141401317
 20
607.422676860027
 30
0.0
 11
518.2520141401317
 21
656.1363168326777
 31
0.0
  0
LINE
  5
152
330
1F
100
AcDbEntity
  8
_DEFAULT_CAD_LAYER
 62
     7
100
AcDbLine
 10
518.2520141401317
 20
656.1363168326777
 30
0.0
 11
519.0020141401315
 21
656.1363168326777
 31
0.0
  0
LINE
  5
153
330
1F
100
AcDbEntity
  8
_DEFAULT_CAD_LAYER
100
AcDbLine
 10
522.5020141401316
 20
657.0194080894623
 30
0.0
 11
522.5020141401316
 21
618.3140111101698
 31
0.0
  0
LINE
  5
154
330
1F
100
AcDbEntity
  8
_DEFAULT_CAD_LAYER
100
AcDbLine
 10
522.5020141401316
 20
618.3140111101698
 30
0.0
 11
519.0020141401316
 21
618.3140111101698
 31
0.0
  0
LINE
  5
155
330
1F
100
AcDbEntity
  8
_DEFAULT_CAD_LAYER
100
AcDbLine
 10
519.0020141401316
 20
618.3140111101698
 30
0.0
 11
519.0020141401316
 21
657.0194080894623
 31
0.0
  0
LINE
  5
156
330
1F
100
AcDbEntity
  8
_DEFAULT_CAD_LAYER
100
AcDbLine
 10
519.0020141401316
 20
657.0194080894623
 30
0.0
 11
522.5020141401316
 21
657.0194080894623
 31
0.0
  0
INSERT
  5
157
330
1F
100
AcDbEntity
  8
_DEFAULT_CAD_LAYER
100
AcDbBlockReference
  2
block59_1
 10
514.6599403414787
 20
627.3140495623152
 30
0.0
 42
1.03955095366202
  0
INSERT
  5
158
330
1F
100
AcDbEntity
  8
_DEFAULT_CAD_LAYER
100
AcDbBlockReference
  2
block59_1
 10
514.6599403414787
 20
623.3140495623152
 30
0.0
 42
1.03955095366202
  0
INSERT
  5
159
330
1F
100
AcDbEntity
  8
_DEFAULT_CAD_LAYER
100
AcDbBlockReference
  2
block59_1
 10
514.6599403414787
 20
619.3140495623152
 30
0.0
 42
1.03955095366202
  0
INSERT
  5
1A9
330
1F
100
AcDbEntity
  8
_DEFAULT_CAD_LAYER
  6
Continuous
370
     0
100
AcDbBlockReference
  2
block48
 10
517.2637555610726
 20
623.6572050627653
 30
0.0
 42
1.203673980734605
1001
CHIEFARC-LNWT
1070
     0
  0
INSERT
  5
1AA
330
1F
100
AcDbEntity
  8
_DEFAULT_CAD_LAYER
100
AcDbBlockReference
  2
block59_1
 10
514.6599403414787
 20
615.3140495623152
 30
0.0
 42
1.03955095366202
  0
INSERT
  5
1AB
330
1F
100
AcDbEntity
  8
_DEFAULT_CAD_LAYER
100
AcDbBlockReference
  2
block59_1
 10
514.6599403414787
 20
611.3140495623152
 30
0.0
 42
1.03955095366202
  0
INSERT
  5
1AC
330
1F
100
AcDbEntity
  8
_DEFAULT_CAD_LAYER
100
AcDbBlockReference
  2
block59_1
 10
514.6599403414787
 20
607.3140495623152
 30
0.0
 42
1.03955095366202
  0
INSERT
  5
1AD
330
1F
100
AcDbEntity
  8
_DEFAULT_CAD_LAYER
100
AcDbBlockReference
  2
block59_1
 10
514.6599403414787
 20
603.3140495623152
 30
0.0
 42
1.03955095366202
  0
INSERT
  5
1AE
330
1F
100
AcDbEntity
  8
_DEFAULT_CAD_LAYER
100
AcDbBlockReference
  2
block59_1
 10
514.6599403414787
 20
599.3140495623152
 30
0.0
 42
1.03955095366202
  0
LWPOLYLINE
  5
1AF
330
1F
100
AcDbEntity
  8
_DEFAULT_CAD_LAYER
100
AcDbPolyline
 90
        3
 70
     0
 43
0.0
 10
518.1199299697023
 20
647.7877449666173
 10
518.1199299697023
 20
645.6705501483694
 10
516.7069755207461
 20
645.2919501448297
  0
LINE
  5
1B0
330
1F
100
AcDbEntity
  8
_DEFAULT_CAD_LAYER
 62
   254
370
     0
100
AcDbLine
 10
517.6913425100761
 20
645.67766990484
 30
0.0
 11
517.87142546522
 21
645.8577528599845
 31
0.0
  0
LINE
  5
1B1
330
1F
100
AcDbEntity
  8
_DEFAULT_CAD_LAYER
 62
   254
370
     0
100
AcDbLine
 10
517.5217008283006
 20
645.684804918361
 30
0.0
 11
517.8822526415042
 21
646.0453567315656
 31
0.0
  0
LINE
  5
1B2
330
1F
100
AcDbEntity
  8
_DEFAULT_CAD_LAYER
 62
   254
370
     0
100
AcDbLine
 10
517.395447825868
 20
645.7353286112253
 30
0.0
 11
517.8930798177885
 21
646.2329606031465
 31
0.0
  0
LINE
  5
1B3
330
1F
100
AcDbEntity
  8
_DEFAULT_CAD_LAYER
 62
   254
370
     0
100
AcDbLine
 10
517.423093956916
 20
645.9397514375694
 30
0.0
 11
517.9039069940727
 21
646.4205644747274
 31
0.0
  0
LINE
  5
1B4
330
1F
100
AcDbEntity
  8
_DEFAULT_CAD_LAYER
 62
   254
370
     0
100
AcDbLine
 10
517.450740087964
 20
646.1441742639144
 30
0.0
 11
517.9147341703568
 21
646.6081683463063
 31
0.0
  0
LINE
  5
1B5
330
1F
100
AcDbEntity
  8
_DEFAULT_CAD_LAYER
 62
   254
370
     0
100
AcDbLine
 10
517.4783862190121
 20
646.3485970902592
 30
0.0
 11
517.9255613466411
 21
646.7957722178874
 31
0.0
  0
LINE
  5
1B6
330
1F
100
AcDbEntity
  8
_DEFAULT_CAD_LAYER
 62
   254
370
     0
100
AcDbLine
 10
517.5060323500601
 20
646.5530199166034
 30
0.0
 11
517.9363885229253
 21
646.9833760894683
 31
0.0
  0
LINE
  5
1B7
330
1F
100
AcDbEntity
  8
_DEFAULT_CAD_LAYER
 62
   254
370
     0
100
AcDbLine
 10
517.5336784811082
 20
646.7574427429482
 30
0.0
 11
517.9472156992096
 21
647.1709799610492
 31
0.0
  0
LINE
  5
1B8
330
1F
100
AcDbEntity
  8
_DEFAULT_CAD_LAYER
 62
   254
370
     0
100
AcDbLine
 10
517.5613246121562
 20
646.9618655692932
 30
0.0
 11
517.9580428754938
 21
647.3585838326302
 31
0.0
  0
LINE
  5
1B9
330
1F
100
AcDbEntity
  8
_DEFAULT_CAD_LAYER
 62
   254
370
     0
100
AcDbLine
 10
517.5889707432043
 20
647.1662883956382
 30
0.0
 11
517.968870051778
 21
647.5461877042111
 31
0.0
  0
LINE
  5
1BA
330
1F
100
AcDbEntity
  8
_DEFAULT_CAD_LAYER
 62
   254
370
     0
100
AcDbLine
 10
517.6166168742524
 20
647.370711221983
 30
0.0
 11
517.9796972280623
 21
647.733791575792
 31
0.0
  0
LINE
  5
1BB
330
1F
100
AcDbEntity
  8
_DEFAULT_CAD_LAYER
 62
   254
370
     0
100
AcDbLine
 10
517.6442630053003
 20
647.5751340483272
 30
0.0
 11
517.9905244043465
 21
647.921395447373
 31
0.0
  0
LINE
  5
1BC
330
1F
100
AcDbEntity
  8
_DEFAULT_CAD_LAYER
 62
   254
370
     0
100
AcDbLine
 10
517.6719091363484
 20
647.779556874672
 30
0.0
 11
518.0013515806307
 21
648.1089993189539
 31
0.0
  0
LINE
  5
1BD
330
1F
100
AcDbEntity
  8
_DEFAULT_CAD_LAYER
 62
   254
370
     0
100
AcDbLine
 10
517.6995552673964
 20
647.9839797010161
 30
0.0
 11
518.012178756915
 21
648.2966031905349
 31
0.0
  0
LINE
  5
1BE
330
1F
100
AcDbEntity
  8
_DEFAULT_CAD_LAYER
 62
   254
370
     0
100
AcDbLine
 10
517.7272013984444
 20
648.1884025273611
 30
0.0
 11
518.0230059331992
 21
648.4842070621158
 31
0.0
  0
LINE
  5
1BF
330
1F
100
AcDbEntity
  8
_DEFAULT_CAD_LAYER
 62
   254
370
     0
100
AcDbLine
 10
517.7548475294925
 20
648.392825353706
 30
0.0
 11
518.0338331094835
 21
648.6718109336967
 31
0.0
  0
LINE
  5
1C0
330
1F
100
AcDbEntity
  8
_DEFAULT_CAD_LAYER
 62
   254
370
     0
100
AcDbLine
 10
517.7824936605405
 20
648.5972481800501
 30
0.0
 11
518.0446602857677
 21
648.8594148052778
 31
0.0
  0
LINE
  5
1C1
330
1F
100
AcDbEntity
  8
_DEFAULT_CAD_LAYER
 62
   254
370
     0
100
AcDbLine
 10
517.8101397915885
 20
648.801671006395
 30
0.0
 11
518.0554874620519
 21
649.0470186768587
 31
0.0
  0
LINE
  5
1C2
330
1F
100
AcDbEntity
  8
_DEFAULT_CAD_LAYER
 62
   254
370
     0
100
AcDbLine
 10
517.8377859226366
 20
649.0060938327399
 30
0.0
 11
518.0663146383362
 21
649.2346225484396
 31
0.0
  0
LINE
  5
1C3
330
1F
100
AcDbEntity
  8
_DEFAULT_CAD_LAYER
 62
   254
370
     0
100
AcDbLine
 10
517.8654320536846
 20
649.2105166590841
 30
0.0
 11
518.0771418146204
 21
649.4222264200206
 31
0.0
  0
LINE
  5
1C4
330
1F
100
AcDbEntity
  8
_DEFAULT_CAD_LAYER
 62
   254
370
     0
100
AcDbLine
 10
517.8930781847326
 20
649.4149394854289
 30
0.0
 11
518.0879689909046
 21
649.6098302916015
 31
0.0
  0
LINE
  5
1C5
330
1F
100
AcDbEntity
  8
_DEFAULT_CAD_LAYER
 62
   254
370
     0
100
AcDbLine
 10
517.9207243157807
 20
649.6193623117739
 30
0.0
 11
518.0987961671889
 21
649.7974341631825
 31
0.0
  0
LINE
  5
1C6
330
1F
100
AcDbEntity
  8
_DEFAULT_CAD_LAYER
 62
   254
370
     0
100
AcDbLine
 10
517.9483704468288
 20
649.8237851381188
 30
0.0
 11
518.1096233434731
 21
649.9850380347634
 31
0.0
  0
LINE
  5
1C7
330
1F
100
AcDbEntity
  8
_DEFAULT_CAD_LAYER
 62
   254
370
     0
100
AcDbLine
 10
517.9760165778767
 20
650.0282079644629
 30
0.0
 11
518.111773920106
 21
650.1639653066925
 31
0.0
  0
LWPOLYLINE
  5
1C8
330
1F
100
AcDbEntity
  8
_DEFAULT_CAD_LAYER
 62
    35
370
    18
100
AcDbPolyline
 90
        4
 70
     1
 43
0.0
 10
518.1199299697024
 20
650.1636222688049
 10
517.8606214410681
 20
645.6705501483694
 10
517.3893677284816
 20
645.6903707583517
 10
517.9950403848737
 20
650.168875039628
  0
LINE
  5
1C9
330
1F
100
AcDbEntity
  8
_DEFAULT_CAD_LAYER
 62
   254
370
     0
100
AcDbLine
 10
517.7760553810446
 20
649.2979166817437
 30
0.0
 11
517.866018768128
 21
649.3878800688263
 31
0.0
  0
LINE
  5
1CA
330
1F
100
AcDbEntity
  8
_DEFAULT_CAD_LAYER
 62
   254
370
     0
100
AcDbLine
 10
517.6064136992692
 20
649.3050516952649
 30
0.0
 11
517.8768459444123
 21
649.5754839404073
 31
0.0
  0
LINE
  5
1CB
330
1F
100
AcDbEntity
  8
_DEFAULT_CAD_LAYER
 62
   254
370
     0
100
AcDbLine
 10
517.4367720174936
 20
649.312186708786
 30
0.0
 11
517.8876731206965
 21
649.7630878119883
 31
0.0
  0
LINE
  5
1CC
330
1F
100
AcDbEntity
  8
_DEFAULT_CAD_LAYER
 62
   254
370
     0
100
AcDbLine
 10
517.4092884870118
 20
649.4614798736011
 30
0.0
 11
517.8985002969807
 21
649.9506916835692
 31
0.0
  0
LINE
  5
1CD
330
1F
100
AcDbEntity
  8
_DEFAULT_CAD_LAYER
 62
   254
370
     0
100
AcDbLine
 10
517.4369346180599
 20
649.665902699946
 30
0.0
 11
517.909327473265
 21
650.1382955551501
 31
0.0
  0
LINE
  5
1CE
330
1F
100
AcDbEntity
  8
_DEFAULT_CAD_LAYER
 62
   254
370
     0
100
AcDbLine
 10
517.4645807491079
 20
649.87032552629
 30
0.0
 11
517.9201546495492
 21
650.3258994267311
 31
0.0
  0
LINE
  5
1CF
330
1F
100
AcDbEntity
  8
_DEFAULT_CAD_LAYER
 62
   254
370
     0
100
AcDbLine
 10
517.492226880156
 20
650.074748352635
 30
0.0
 11
517.9309818258334
 21
650.513503298312
 31
0.0
  0
LINE
  5
1D0
330
1F
100
AcDbEntity
  8
_DEFAULT_CAD_LAYER
 62
   254
370
     0
100
AcDbLine
 10
517.519873011204
 20
650.2791711789799
 30
0.0
 11
517.9418090021177
 21
650.7011071698929
 31
0.0
  0
LINE
  5
1D1
330
1F
100
AcDbEntity
  8
_DEFAULT_CAD_LAYER
 62
   254
370
     0
100
AcDbLine
 10
517.547519142252
 20
650.483594005324
 30
0.0
 11
517.9526361784019
 21
650.8887110414739
 31
0.0
  0
LINE
  5
1D2
330
1F
100
AcDbEntity
  8
_DEFAULT_CAD_LAYER
 62
   254
370
     0
100
AcDbLine
 10
517.5751652733001
 20
650.6880168316688
 30
0.0
 11
517.9634633546862
 21
651.0763149130548
 31
0.0
  0
LINE
  5
1D3
330
1F
100
AcDbEntity
  8
_DEFAULT_CAD_LAYER
 62
   254
370
     0
100
AcDbLine
 10
517.6028114043481
 20
650.8924396580138
 30
0.0
 11
517.9742905309704
 21
651.2639187846357
 31
0.0
  0
LINE
  5
1D4
330
1F
100
AcDbEntity
  8
_DEFAULT_CAD_LAYER
 62
   254
370
     0
100
AcDbLine
 10
517.6304575353961
 20
651.0968624843579
 30
0.0
 11
517.9851177072546
 21
651.4515226562168
 31
0.0
  0
LINE
  5
1D5
330
1F
100
AcDbEntity
  8
_DEFAULT_CAD_LAYER
 62
   254
370
     0
100
AcDbLine
 10
517.6581036664442
 20
651.3012853107028
 30
0.0
 11
517.9959448835389
 21
651.6391265277977
 31
0.0
  0
LINE
  5
1D6
330
1F
100
AcDbEntity
  8
_DEFAULT_CAD_LAYER
 62
   254
370
     0
100
AcDbLine
 10
517.6857497974922
 20
651.5057081370478
 30
0.0
 11
518.0067720598231
 21
651.8267303993786
 31
0.0
  0
LINE
  5
1D7
330
1F
100
AcDbEntity
  8
_DEFAULT_CAD_LAYER
 62
   254
370
     0
100
AcDbLine
 10
517.7133959285403
 20
651.7101309633927
 30
0.0
 11
518.0175992361073
 21
652.0143342709596
 31
0.0
  0
LINE
  5
1D8
330
1F
100
AcDbEntity
  8
_DEFAULT_CAD_LAYER
 62
   254
370
     0
100
AcDbLine
 10
517.7410420595883
 20
651.9145537897367
 30
0.0
 11
518.0284264123916
 21
652.2019381425405
 31
0.0
  0
LINE
  5
1D9
330
1F
100
AcDbEntity
  8
_DEFAULT_CAD_LAYER
 62
   254
370
     0
100
AcDbLine
 10
517.7686881906363
 20
652.1189766160817
 30
0.0
 11
518.0392535886758
 21
652.3895420141214
 31
0.0
  0
LINE
  5
1DA
330
1F
100
AcDbEntity
  8
_DEFAULT_CAD_LAYER
 62
   254
370
     0
100
AcDbLine
 10
517.7963343216842
 20
652.3233994424249
 30
0.0
 11
518.05008076496
 21
652.5771458857004
 31
0.0
  0
LINE
  5
1DB
330
1F
100
AcDbEntity
  8
_DEFAULT_CAD_LAYER
 62
   254
370
     0
100
AcDbLine
 10
517.8239804527323
 20
652.5278222687698
 30
0.0
 11
518.0609079412442
 21
652.7647497572814
 31
0.0
  0
LINE
  5
1DC
330
1F
100
AcDbEntity
  8
_DEFAULT_CAD_LAYER
 62
   254
370
     0
100
AcDbLine
 10
517.8516265837802
 20
652.732245095114
 30
0.0
 11
518.0717351175284
 21
652.9523536288623
 31
0.0
  0
LINE
  5
1DD
330
1F
100
AcDbEntity
  8
_DEFAULT_CAD_LAYER
 62
   254
370
     0
100
AcDbLine
 10
517.8792727148283
 20
652.9366679214588
 30
0.0
 11
518.0825622938127
 21
653.1399575004432
 31
0.0
  0
LINE
  5
1DE
330
1F
100
AcDbEntity
  8
_DEFAULT_CAD_LAYER
 62
   254
370
     0
100
AcDbLine
 10
517.9069188458764
 20
653.1410907478038
 30
0.0
 11
518.0933894700969
 21
653.3275613720242
 31
0.0
  0
LINE
  5
1DF
330
1F
100
AcDbEntity
  8
_DEFAULT_CAD_LAYER
 62
   254
370
     0
100
AcDbLine
 10
517.9345649769243
 20
653.3455135741478
 30
0.0
 11
518.1042166463811
 21
653.5151652436051
 31
0.0
  0
LINE
  5
1E0
330
1F
100
AcDbEntity
  8
_DEFAULT_CAD_LAYER
 62
   254
370
     0
100
AcDbLine
 10
517.9622111079724
 20
653.5499364004928
 30
0.0
 11
518.1150438226654
 21
653.702769115186
 31
0.0
  0
LINE
  5
1E1
330
1F
100
AcDbEntity
  8
_DEFAULT_CAD_LAYER
 62
   254
370
     0
100
AcDbLine
 10
517.9898572390205
 20
653.7543592268377
 30
0.0
 11
518.0268451093001
 21
653.7913470971172
 31
0.0
  0
LWPOLYLINE
  5
1E2
330
1F
100
AcDbEntity
  8
_DEFAULT_CAD_LAYER
 62
    35
370
    18
100
AcDbPolyline
 90
        4
 70
     1
 43
0.0
 10
518.1199299697024
 20
653.787432011328
 10
517.8606214410681
 20
649.2943598908925
 10
517.3893677284816
 20
649.3141805008748
 10
517.9950403848737
 20
653.7926847821511
  0
LINE
  5
1E3
330
1F
100
AcDbEntity
  8
_DEFAULT_CAD_LAYER
 62
   254
370
     0
100
AcDbLine
 10
517.7461738374438
 20
652.8035690440745
 30
0.0
 11
517.8716134301108
 21
652.9290086367412
 31
0.0
  0
LINE
  5
1E4
330
1F
100
AcDbEntity
  8
_DEFAULT_CAD_LAYER
 62
   254
370
     0
100
AcDbLine
 10
517.5765321556684
 20
652.8107040575957
 30
0.0
 11
517.8879064711898
 21
653.1220783731166
 31
0.0
  0
LINE
  5
1E5
330
1F
100
AcDbEntity
  8
_DEFAULT_CAD_LAYER
 62
   254
370
     0
100
AcDbLine
 10
517.406890473893
 20
652.8178390711169
 30
0.0
 11
517.904199512269
 21
653.3151481094934
 31
0.0
  0
LINE
  5
1E6
330
1F
100
AcDbEntity
  8
_DEFAULT_CAD_LAYER
 62
   254
370
     0
100
AcDbLine
 10
517.4186354620517
 20
653.0063607545721
 30
0.0
 11
517.920492553348
 21
653.5082178458689
 31
0.0
  0
LINE
  5
1E7
330
1F
100
AcDbEntity
  8
_DEFAULT_CAD_LAYER
 62
   254
370
     0
100
AcDbLine
 10
517.4512745776232
 20
653.21577656544
 30
0.0
 11
517.9367855944271
 21
653.7012875822443
 31
0.0
  0
LINE
  5
1E8
330
1F
100
AcDbEntity
  8
_DEFAULT_CAD_LAYER
 62
   254
370
     0
100
AcDbLine
 10
517.4839136931947
 20
653.4251923763087
 30
0.0
 11
517.9530786355061
 21
653.8943573186198
 31
0.0
  0
LINE
  5
1E9
330
1F
100
AcDbEntity
  8
_DEFAULT_CAD_LAYER
 62
   254
370
     0
100
AcDbLine
 10
517.5165528087662
 20
653.6346081871767
 30
0.0
 11
517.9693716765852
 21
654.0874270549953
 31
0.0
  0
LINE
  5
1EA
330
1F
100
AcDbEntity
  8
_DEFAULT_CAD_LAYER
 62
   254
370
     0
100
AcDbLine
 10
517.5491919243376
 20
653.8440239980446
 30
0.0
 11
517.9856647176642
 21
654.2804967913706
 31
0.0
  0
LINE
  5
1EB
330
1F
100
AcDbEntity
  8
_DEFAULT_CAD_LAYER
 62
   254
370
     0
100
AcDbLine
 10
517.581831039909
 20
654.0534398089126
 30
0.0
 11
518.0019577587434
 21
654.4735665277475
 31
0.0
  0
LINE
  5
1EC
330
1F
100
AcDbEntity
  8
_DEFAULT_CAD_LAYER
 62
   254
370
     0
100
AcDbLine
 10
517.6144701554805
 20
654.2628556197806
 30
0.0
 11
518.0182507998225
 21
654.666636264123
 31
0.0
  0
LINE
  5
1ED
330
1F
100
AcDbEntity
  8
_DEFAULT_CAD_LAYER
 62
   254
370
     0
100
AcDbLine
 10
517.647109271052
 20
654.4722714306492
 30
0.0
 11
518.0345438409015
 21
654.8597060004984
 31
0.0
  0
LINE
  5
1EE
330
1F
100
AcDbEntity
  8
_DEFAULT_CAD_LAYER
 62
   254
370
     0
100
AcDbLine
 10
517.6797483866235
 20
654.6816872415171
 30
0.0
 11
518.0508368819806
 21
655.0527757368739
 31
0.0
  0
LINE
  5
1EF
330
1F
100
AcDbEntity
  8
_DEFAULT_CAD_LAYER
 62
   254
370
     0
100
AcDbLine
 10
517.7123875021949
 20
654.8911030523851
 30
0.0
 11
518.0671299230596
 21
655.2458454732493
 31
0.0
  0
LINE
  5
1F0
330
1F
100
AcDbEntity
  8
_DEFAULT_CAD_LAYER
 62
   254
370
     0
100
AcDbLine
 10
517.7450266177664
 20
655.100518863253
 30
0.0
 11
518.0834229641388
 21
655.4389152096261
 31
0.0
  0
LINE
  5
1F1
330
1F
100
AcDbEntity
  8
_DEFAULT_CAD_LAYER
 62
   254
370
     0
100
AcDbLine
 10
517.7776657333379
 20
655.3099346741217
 30
0.0
 11
518.0997160052178
 21
655.6319849460016
 31
0.0
  0
LINE
  5
1F2
330
1F
100
AcDbEntity
  8
_DEFAULT_CAD_LAYER
 62
   254
370
     0
100
AcDbLine
 10
517.8103048489094
 20
655.5193504849897
 30
0.0
 11
518.1160090462969
 21
655.8250546823771
 31
0.0
  0
LINE
  5
1F3
330
1F
100
AcDbEntity
  8
_DEFAULT_CAD_LAYER
 62
   254
370
     0
100
AcDbLine
 10
517.8429439644808
 20
655.7287662958576
 30
0.0
 11
518.1323020873759
 21
656.0181244187524
 31
0.0
  0
LINE
  5
1F4
330
1F
100
AcDbEntity
  8
_DEFAULT_CAD_LAYER
 62
   254
370
     0
100
AcDbLine
 10
517.8755830800523
 20
655.9381821067255
 30
0.0
 11
518.148595128455
 21
656.2111941551279
 31
0.0
  0
LINE
  5
1F5
330
1F
100
AcDbEntity
  8
_DEFAULT_CAD_LAYER
 62
   254
370
     0
100
AcDbLine
 10
517.9082221956237
 20
656.1475979175935
 30
0.0
 11
518.1648881695342
 21
656.4042638915047
 31
0.0
  0
LINE
  5
1F6
330
1F
100
AcDbEntity
  8
_DEFAULT_CAD_LAYER
 62
   254
370
     0
100
AcDbLine
 10
517.9408613111951
 20
656.3570137284614
 30
0.0
 11
518.1811812106132
 21
656.5973336278802
 31
0.0
  0
LINE
  5
1F7
330
1F
100
AcDbEntity
  8
_DEFAULT_CAD_LAYER
 62
   254
370
     0
100
AcDbLine
 10
517.9735004267667
 20
656.5664295393301
 30
0.0
 11
518.0717935076866
 21
656.6647226202499
 31
0.0
  0
LWPOLYLINE
  5
1F8
330
1F
100
AcDbEntity
  8
_DEFAULT_CAD_LAYER
 62
    35
370
    18
100
AcDbPolyline
 90
        4
 70
     1
 43
0.0
 10
518.1895304033148
 20
656.6962701263528
 10
517.8606214410681
 20
652.7987554558645
 10
517.3893677284816
 20
652.8185760658467
 10
517.9852040329679
 20
656.641521040426
  0
LINE
  5
1F9
330
1F
100
AcDbEntity
  8
_DEFAULT_CAD_LAYER
 62
   252
370
    13
100
AcDbLine
 10
515.806797279604
 20
643.0180565489892
 30
0.0
 11
515.806797279604
 21
599.3160708073867
 31
0.0
1001
CHIEFARC-LNWT
1070
    12
  0
LINE
  5
1FA
330
1F
100
AcDbEntity
  8
_DEFAULT_CAD_LAYER
 62
   252
370
     0
100
AcDbLine
 10
529.100561445001
 20
593.8555135688206
 30
0.0
 11
529.3416067986334
 21
594.1427802349901
 31
0.0
  0
LINE
  5
1FB
330
1F
100
AcDbEntity
  8
_DEFAULT_CAD_LAYER
 62
   252
370
     0
100
AcDbLine
 10
525.5142605319974
 20
594.1692742437335
 30
0.0
 11
525.7553058856298
 21
594.4565409099032
 31
0.0
  0
LINE
  5
1FC
330
1F
100
AcDbEntity
  8
_DEFAULT_CAD_LAYER
 62
   252
370
     0
100
AcDbLine
 10
528.4068047755868
 20
597.6164742377689
 30
0.0
 11
528.6478501292193
 21
597.9037409039386
 31
0.0
  0
LINE
  5
1FD
330
1F
100
AcDbEntity
  8
_DEFAULT_CAD_LAYER
 62
   252
370
     0
100
AcDbLine
 10
521.9279596189934
 20
594.4830349186466
 30
0.0
 11
522.1690049726259
 21
594.7703015848161
 31
0.0
  0
LINE
  5
1FE
330
1F
100
AcDbEntity
  8
_DEFAULT_CAD_LAYER
 62
   252
370
     0
100
AcDbLine
 10
524.8205038625829
 20
597.930234912682
 30
0.0
 11
525.0615492162153
 21
598.2175015788516
 31
0.0
  0
LINE
  5
1FF
330
1F
100
AcDbEntity
  8
_DEFAULT_CAD_LAYER
 62
   252
370
     0
100
AcDbLine
 10
518.3416587059899
 20
594.7967955935595
 30
0.0
 11
518.5827040596223
 21
595.0840622597292
 31
0.0
  0
LINE
  5
200
330
1F
100
AcDbEntity
  8
_DEFAULT_CAD_LAYER
 62
   252
370
     0
100
AcDbLine
 10
521.2342029495793
 20
598.243995587595
 30
0.0
 11
521.4752483032117
 21
598.5312622537646
 31
0.0
  0
LINE
  5
201
330
1F
100
AcDbEntity
  8
_DEFAULT_CAD_LAYER
 62
   252
370
     0
100
AcDbLine
 10
529.1005617013363
 20
593.855513676138
 30
0.0
 11
529.3994201107639
 21
593.8293669533138
 31
0.0
  0
LINE
  5
202
330
1F
100
AcDbEntity
  8
_DEFAULT_CAD_LAYER
 62
   252
370
     0
100
AcDbLine
 10
525.514260788206
 20
594.1692743500296
 30
0.0
 11
525.8131191976336
 21
594.1431276272053
 31
0.0
  0
LINE
  5
203
330
1F
100
AcDbEntity
  8
_DEFAULT_CAD_LAYER
 62
   252
370
     0
100
AcDbLine
 10
521.9279598750758
 20
594.4830350239212
 30
0.0
 11
522.2268182845032
 21
594.4568883010968
 31
0.0
  0
LINE
  5
204
330
1F
100
AcDbEntity
  8
_DEFAULT_CAD_LAYER
 62
   252
370
     0
100
AcDbLine
 10
518.3416589619455
 20
594.7967956978127
 30
0.0
 11
518.640517371373
 21
594.7706489749884
 31
0.0
  0
LINE
  5
205
330
1F
100
AcDbEntity
  8
_DEFAULT_CAD_LAYER
 62
   252
370
     0
100
AcDbLine
 10
528.4068050332714
 20
597.616474344638
 30
0.0
 11
528.7056634426989
 21
597.5903276218138
 31
0.0
  0
LINE
  5
206
330
1F
100
AcDbEntity
  8
_DEFAULT_CAD_LAYER
 62
   252
370
     0
100
AcDbLine
 10
524.8205041201411
 20
597.9302350185296
 30
0.0
 11
525.1193625295687
 21
597.9040882957053
 31
0.0
  0
LINE
  5
207
330
1F
100
AcDbEntity
  8
_DEFAULT_CAD_LAYER
 62
   252
370
     0
100
AcDbLine
 10
521.2342032070109
 20
598.2439956924211
 30
0.0
 11
521.5330616164383
 21
598.2178489695968
 31
0.0
  0
LINE
  5
208
330
1F
100
AcDbEntity
  8
_DEFAULT_CAD_LAYER
 62
   252
370
     0
100
AcDbLine
 10
518.6409767804757
 20
594.7702397271763
 30
0.0
 11
518.5831639712219
 21
595.0836531516129
 31
0.0
  0
LINE
  5
209
330
1F
100
AcDbEntity
  8
_DEFAULT_CAD_LAYER
 62
   252
370
     0
100
AcDbLine
 10
522.2272774200455
 20
594.4564762360667
 30
0.0
 11
522.1694646107918
 21
594.7698896605034
 31
0.0
  0
LINE
  5
20A
330
1F
100
AcDbEntity
  8
_DEFAULT_CAD_LAYER
 62
   252
370
     0
100
AcDbLine
 10
521.5335236890459
 20
598.2174374374812
 30
0.0
 11
521.475710879792
 21
598.5308508619178
 31
0.0
  0
LINE
  5
20B
330
1F
100
AcDbEntity
  8
_DEFAULT_CAD_LAYER
 62
   252
370
     0
100
AcDbLine
 10
525.8135780596152
 20
594.142712744957
 30
0.0
 11
525.7557652503615
 21
594.4561261693937
 31
0.0
  0
LINE
  5
20C
330
1F
100
AcDbEntity
  8
_DEFAULT_CAD_LAYER
 62
   252
370
     0
100
AcDbLine
 10
525.1198243286156
 20
597.9036739463713
 30
0.0
 11
525.0620115193618
 21
598.217087370808
 31
0.0
  0
LINE
  5
20D
330
1F
100
AcDbEntity
  8
_DEFAULT_CAD_LAYER
 62
   252
370
     0
100
AcDbLine
 10
529.3998786991851
 20
593.8289492538474
 30
0.0
 11
529.3420658899313
 21
594.142362678284
 31
0.0
  0
LINE
  5
20E
330
1F
100
AcDbEntity
  8
_DEFAULT_CAD_LAYER
 62
   252
370
     0
100
AcDbLine
 10
528.7061249681855
 20
597.5899104552618
 30
0.0
 11
528.6483121589316
 21
597.9033238796984
 31
0.0
  0
LINE
  5
20F
330
1F
100
AcDbEntity
  8
_DEFAULT_CAD_LAYER
 62
   252
370
     0
100
AcDbLine
 10
528.1170401286769
 20
596.134918929018
 30
0.0
 11
528.506482605833
 21
596.5408016793124
 31
0.0
  0
LINE
  5
210
330
1F
100
AcDbEntity
  8
_DEFAULT_CAD_LAYER
 62
   252
370
     0
100
AcDbLine
 10
518.2905960963262
 20
592.2827202540809
 30
0.0
 11
518.4969676368321
 21
592.4978037474243
 31
0.0
  0
LINE
  5
211
330
1F
100
AcDbEntity
  8
_DEFAULT_CAD_LAYER
 62
   252
370
     0
100
AcDbLine
 10
522.7808348855485
 20
596.962514000663
 30
0.0
 11
523.1702773627046
 21
597.3683967509573
 31
0.0
  0
LINE
  5
212
330
1F
100
AcDbEntity
  8
_DEFAULT_CAD_LAYER
 62
   252
370
     0
100
AcDbLine
 10
518.5526710649145
 20
592.022543243728
 30
0.0
 11
518.4974301425825
 21
592.4973922932016
 31
0.0
  0
LINE
  5
213
330
1F
100
AcDbEntity
  8
_DEFAULT_CAD_LAYER
 62
   252
370
     0
100
AcDbLine
 10
523.225984592658
 20
596.8931325982303
 30
0.0
 11
523.1707436703259
 21
597.3679816477039
 31
0.0
  0
LINE
  5
214
330
1F
100
AcDbEntity
  8
_DEFAULT_CAD_LAYER
 62
   252
370
     0
100
AcDbLine
 10
528.5621890913212
 20
596.0655341934223
 30
0.0
 11
528.5069481689891
 21
596.5403832428959
 31
0.0
  0
LINE
  5
215
330
1F
100
AcDbEntity
  8
_DEFAULT_CAD_LAYER
 62
   252
370
     0
100
AcDbLine
 10
518.2905960963262
 20
592.0635285376111
 30
0.0
 11
518.5522089031047
 21
592.0229548603825
 31
0.0
  0
LINE
  5
216
330
1F
100
AcDbEntity
  8
_DEFAULT_CAD_LAYER
 62
   252
370
     0
100
AcDbLine
 10
528.1170401019075
 20
596.1349190507242
 30
0.0
 11
528.5617238721925
 21
596.0659527948801
 31
0.0
  0
LINE
  5
217
330
1F
100
AcDbEntity
  8
_DEFAULT_CAD_LAYER
 62
   252
370
     0
100
AcDbLine
 10
522.780834858488
 20
596.9625141208533
 30
0.0
 11
523.2255186287729
 21
596.893547865009
 31
0.0
  0
LINE
  5
218
330
1F
100
AcDbEntity
  8
_DEFAULT_CAD_LAYER
 62
   252
370
     0
100
AcDbLine
 10
528.2390017447138
 20
591.8562973983538
 30
0.0
 11
528.5890944046503
 21
591.9906853794333
 31
0.0
  0
LINE
  5
219
330
1F
100
AcDbEntity
  8
_DEFAULT_CAD_LAYER
 62
   252
370
     0
100
AcDbLine
 10
521.0533545648842
 20
592.2567360787267
 30
0.0
 11
521.4034472248206
 21
592.3911240598061
 31
0.0
  0
LINE
  5
21A
330
1F
100
AcDbEntity
  8
_DEFAULT_CAD_LAYER
 62
   252
370
     0
100
AcDbLine
 10
525.2544664841216
 20
593.8693918516805
 30
0.0
 11
525.604559144058
 21
594.00377983276
 31
0.0
  0
LINE
  5
21B
330
1F
100
AcDbEntity
  8
_DEFAULT_CAD_LAYER
 62
   252
370
     0
100
AcDbLine
 10
529.4555784033589
 20
595.4820476246343
 30
0.0
 11
529.8056710632954
 21
595.6164356057137
 31
0.0
  0
LINE
  5
21C
330
1F
100
AcDbEntity
  8
_DEFAULT_CAD_LAYER
 62
   252
370
     0
100
AcDbLine
 10
518.2905960963262
 20
594.3549626663208
 30
0.0
 11
518.4189119642283
 21
594.4042185131327
 31
0.0
  0
LINE
  5
21D
330
1F
100
AcDbEntity
  8
_DEFAULT_CAD_LAYER
 62
   252
370
     0
100
AcDbLine
 10
522.2699312235293
 20
595.8824863050072
 30
0.0
 11
522.6200238834657
 21
596.0168742860867
 31
0.0
  0
LINE
  5
21E
330
1F
100
AcDbEntity
  8
_DEFAULT_CAD_LAYER
 62
   252
370
     0
100
AcDbLine
 10
526.4710431427667
 20
597.4951420779611
 30
0.0
 11
526.8211358027031
 21
597.6295300590406
 31
0.0
  0
LINE
  5
21F
330
1F
100
AcDbEntity
  8
_DEFAULT_CAD_LAYER
 62
   252
370
     0
100
AcDbLine
 10
519.2853959629371
 20
597.895580758334
 30
0.0
 11
519.6354886228735
 21
598.0299687394133
 31
0.0
  0
LINE
  5
220
330
1F
100
AcDbEntity
  8
_DEFAULT_CAD_LAYER
 62
   252
370
     0
100
AcDbLine
 10
521.0533548223145
 20
592.2567359301316
 30
0.0
 11
521.302066094081
 21
592.0889780590904
 31
0.0
  0
LINE
  5
221
330
1F
100
AcDbEntity
  8
_DEFAULT_CAD_LAYER
 62
   252
370
     0
100
AcDbLine
 10
518.2905960963262
 20
594.1202402207915
 30
0.0
 11
518.317530832883
 21
594.1020725115851
 31
0.0
  0
LINE
  5
222
330
1F
100
AcDbEntity
  8
_DEFAULT_CAD_LAYER
 62
   252
370
     0
100
AcDbLine
 10
528.2390020043189
 20
591.8562972503767
 30
0.0
 11
528.4012394596855
 21
591.746866704981
 31
0.0
  0
LINE
  5
223
330
1F
100
AcDbEntity
  8
_DEFAULT_CAD_LAYER
 62
   252
370
     0
100
AcDbLine
 10
525.2544667431207
 20
593.8693917028713
 30
0.0
 11
525.5031780148872
 21
593.7016338318301
 31
0.0
  0
LINE
  5
224
330
1F
100
AcDbEntity
  8
_DEFAULT_CAD_LAYER
 62
   252
370
     0
100
AcDbLine
 10
522.2699314819226
 20
595.882486155366
 30
0.0
 11
522.5186427536892
 21
595.7147282843248
 31
0.0
  0
LINE
  5
225
330
1F
100
AcDbEntity
  8
_DEFAULT_CAD_LAYER
 62
   252
370
     0
100
AcDbLine
 10
519.2853962207245
 20
597.8955806078607
 30
0.0
 11
519.534107492491
 21
597.7278227368195
 31
0.0
  0
LINE
  5
226
330
1F
100
AcDbEntity
  8
_DEFAULT_CAD_LAYER
 62
   252
370
     0
100
AcDbLine
 10
529.4555786639262
 20
595.4820474756102
 30
0.0
 11
529.7042899356928
 21
595.3142896045689
 31
0.0
  0
LINE
  5
227
330
1F
100
AcDbEntity
  8
_DEFAULT_CAD_LAYER
 62
   252
370
     0
100
AcDbLine
 10
526.4710434027281
 20
597.4951419281049
 30
0.0
 11
526.7197546744947
 21
597.3273840570636
 31
0.0
  0
LINE
  5
228
330
1F
100
AcDbEntity
  8
_DEFAULT_CAD_LAYER
 62
   252
370
     0
100
AcDbLine
 10
523.6964620632522
 20
599.3666206722534
 30
0.0
 11
523.7352194132965
 21
599.3404785095582
 31
0.0
  0
LINE
  5
229
330
1F
100
AcDbEntity
  8
_DEFAULT_CAD_LAYER
 62
   252
370
     0
100
AcDbLine
 10
528.5078808933029
 20
591.746866704981
 30
0.0
 11
528.5895525222248
 21
591.9902711450105
 31
0.0
  0
LINE
  5
22A
330
1F
100
AcDbEntity
  8
_DEFAULT_CAD_LAYER
 62
   252
370
     0
100
AcDbLine
 10
529.7047503880273
 20
595.3138746488306
 30
0.0
 11
529.80613200901
 21
595.6160204124246
 31
0.0
  0
LINE
  5
22B
330
1F
100
AcDbEntity
  8
_DEFAULT_CAD_LAYER
 62
   252
370
     0
100
AcDbLine
 10
525.5036372451198
 20
593.7012221652808
 30
0.0
 11
525.6050188661026
 21
594.0033679288748
 31
0.0
  0
LINE
  5
22C
330
1F
100
AcDbEntity
  8
_DEFAULT_CAD_LAYER
 62
   252
370
     0
100
AcDbLine
 10
526.720216731905
 20
597.326971432695
 30
0.0
 11
526.8215983528878
 21
597.629117196289
 31
0.0
  0
LINE
  5
22D
330
1F
100
AcDbEntity
  8
_DEFAULT_CAD_LAYER
 62
   252
370
     0
100
AcDbLine
 10
521.3025241022124
 20
592.0885696817312
 30
0.0
 11
521.4039057231952
 21
592.3907154453251
 31
0.0
  0
LINE
  5
22E
330
1F
100
AcDbEntity
  8
_DEFAULT_CAD_LAYER
 62
   252
370
     0
100
AcDbLine
 10
522.5191035889975
 20
595.7143189491452
 30
0.0
 11
522.6204852099803
 21
596.0164647127392
 31
0.0
  0
LINE
  5
22F
330
1F
100
AcDbEntity
  8
_DEFAULT_CAD_LAYER
 62
   252
370
     0
100
AcDbLine
 10
523.7356830757827
 20
599.3400682165594
 30
0.0
 11
523.7446062203359
 21
599.366661698677
 31
0.0
  0
LINE
  5
230
330
1F
100
AcDbEntity
  8
_DEFAULT_CAD_LAYER
 62
   252
370
     0
100
AcDbLine
 10
518.3179904460901
 20
594.1016664655954
 30
0.0
 11
518.4193720670728
 21
594.4038122291894
 31
0.0
  0
LINE
  5
231
330
1F
100
AcDbEntity
  8
_DEFAULT_CAD_LAYER
 62
   252
370
     0
100
AcDbLine
 10
519.5345699328752
 20
597.7274157330096
 30
0.0
 11
519.6359515538579
 21
598.0295614966035
 31
0.0
  0
LINE
  5
232
330
1F
100
AcDbEntity
  8
_DEFAULT_CAD_LAYER
 62
   252
370
     0
100
AcDbLine
 10
528.7159106505384
 20
591.746866704981
 30
0.0
 11
528.7159106505384
 21
591.746866704981
 31
0.0
  0
LINE
  5
233
330
1F
100
AcDbEntity
  8
_DEFAULT_CAD_LAYER
 62
   252
370
     0
100
AcDbLine
 10
529.2765349366398
 20
592.1770488498231
 30
0.0
 11
529.2765349366398
 21
592.1770488498231
 31
0.0
  0
LINE
  5
234
330
1F
100
AcDbEntity
  8
_DEFAULT_CAD_LAYER
 62
   252
370
     0
100
AcDbLine
 10
529.8526365803331
 20
592.6191071888479
 30
0.0
 11
529.8526365803331
 21
592.6191071888479
 31
0.0
  0
LINE
  5
235
330
1F
100
AcDbEntity
  8
_DEFAULT_CAD_LAYER
 62
   252
370
     0
100
AcDbLine
 10
526.6079183406541
 20
591.7471636585369
 30
0.0
 11
526.6079183406541
 21
591.7471636585369
 31
0.0
  0
LINE
  5
236
330
1F
100
AcDbEntity
  8
_DEFAULT_CAD_LAYER
 62
   252
370
     0
100
AcDbLine
 10
528.2081878506924
 20
592.9750936416292
 30
0.0
 11
528.2081878506924
 21
592.9750936416292
 31
0.0
  0
LINE
  5
237
330
1F
100
AcDbEntity
  8
_DEFAULT_CAD_LAYER
 62
   252
370
     0
100
AcDbLine
 10
529.8526365803331
 20
594.2369235322301
 30
0.0
 11
529.8526365803331
 21
594.2369235322301
 31
0.0
  0
LINE
  5
238
330
1F
100
AcDbEntity
  8
_DEFAULT_CAD_LAYER
 62
   252
370
     0
100
AcDbLine
 10
526.6687176172404
 20
593.4116329276934
 30
0.0
 11
526.6687176172404
 21
593.4116329276934
 31
0.0
  0
LINE
  5
239
330
1F
100
AcDbEntity
  8
_DEFAULT_CAD_LAYER
 62
   252
370
     0
100
AcDbLine
 10
528.2390014023663
 20
594.6165540548062
 30
0.0
 11
528.2390014023663
 21
594.6165540548062
 31
0.0
  0
LINE
  5
23A
330
1F
100
AcDbEntity
  8
_DEFAULT_CAD_LAYER
 62
   252
370
     0
100
AcDbLine
 10
529.8526365803331
 20
595.8547398756124
 30
0.0
 11
529.8526365803331
 21
595.8547398756124
 31
0.0
  0
LINE
  5
23B
330
1F
100
AcDbEntity
  8
_DEFAULT_CAD_LAYER
 62
   252
370
     0
100
AcDbLine
 10
522.3907727286601
 20
591.746866704981
 30
0.0
 11
522.3907727286601
 21
591.746866704981
 31
0.0
  0
LINE
  5
23C
330
1F
100
AcDbEntity
  8
_DEFAULT_CAD_LAYER
 62
   252
370
     0
100
AcDbLine
 10
523.2345067067197
 20
592.394286557021
 30
0.0
 11
523.2345067067197
 21
592.394286557021
 31
0.0
  0
LINE
  5
23D
330
1F
100
AcDbEntity
  8
_DEFAULT_CAD_LAYER
 62
   252
370
     0
100
AcDbLine
 10
524.1015339541123
 20
593.0595799632584
 30
0.0
 11
524.1015339541123
 21
593.0595799632584
 31
0.0
  0
LINE
  5
23E
330
1F
100
AcDbEntity
  8
_DEFAULT_CAD_LAYER
 62
   252
370
     0
100
AcDbLine
 10
526.7295168938269
 20
595.0761021968499
 30
0.0
 11
526.7295168938269
 21
595.0761021968499
 31
0.0
  0
LINE
  5
23F
330
1F
100
AcDbEntity
  8
_DEFAULT_CAD_LAYER
 62
   252
370
     0
100
AcDbLine
 10
528.2698149540403
 20
596.2580144679831
 30
0.0
 11
528.2698149540403
 21
596.2580144679831
 31
0.0
  0
LINE
  5
240
330
1F
100
AcDbEntity
  8
_DEFAULT_CAD_LAYER
 62
   252
370
     0
100
AcDbLine
 10
529.8526365803331
 20
597.4725562189943
 30
0.0
 11
529.8526365803331
 21
597.4725562189943
 31
0.0
  0
LINE
  5
241
330
1F
100
AcDbEntity
  8
_DEFAULT_CAD_LAYER
 62
   252
370
     0
100
AcDbLine
 10
520.2823934213683
 20
591.746866704981
 30
0.0
 11
520.2823934213683
 21
591.746866704981
 31
0.0
  0
LINE
  5
242
330
1F
100
AcDbEntity
  8
_DEFAULT_CAD_LAYER
 62
   252
370
     0
100
AcDbLine
 10
522.1959492123544
 20
593.2151897064081
 30
0.0
 11
522.1959492123544
 21
593.2151897064081
 31
0.0
  0
LINE
  5
243
330
1F
100
AcDbEntity
  8
_DEFAULT_CAD_LAYER
 62
   252
370
     0
100
AcDbLine
 10
524.1623332306991
 20
594.7240492324145
 30
0.0
 11
524.1623332306991
 21
594.7240492324145
 31
0.0
  0
LINE
  5
244
330
1F
100
AcDbEntity
  8
_DEFAULT_CAD_LAYER
 62
   252
370
     0
100
AcDbLine
 10
526.7903161704138
 20
596.7405714660058
 30
0.0
 11
526.7903161704138
 21
596.7405714660058
 31
0.0
  0
LINE
  5
245
330
1F
100
AcDbEntity
  8
_DEFAULT_CAD_LAYER
 62
   252
370
     0
100
AcDbLine
 10
528.3006285057144
 20
597.8994748811594
 30
0.0
 11
528.3006285057144
 21
597.8994748811594
 31
0.0
  0
LINE
  5
246
330
1F
100
AcDbEntity
  8
_DEFAULT_CAD_LAYER
 62
   252
370
     0
100
AcDbLine
 10
529.8526365803331
 20
599.0903725623757
 30
0.0
 11
529.8526365803331
 21
599.0903725623757
 31
0.0
  0
LINE
  5
247
330
1F
100
AcDbEntity
  8
_DEFAULT_CAD_LAYER
 62
   252
370
     0
100
AcDbLine
 10
518.9790669279603
 20
592.3646054558234
 30
0.0
 11
518.9790669279603
 21
592.3646054558234
 31
0.0
  0
LINE
  5
248
330
1F
100
AcDbEntity
  8
_DEFAULT_CAD_LAYER
 62
   252
370
     0
100
AcDbLine
 10
521.5653988173098
 20
594.3491677143918
 30
0.0
 11
521.5653988173098
 21
594.3491677143918
 31
0.0
  0
LINE
  5
249
330
1F
100
AcDbEntity
  8
_DEFAULT_CAD_LAYER
 62
   252
370
     0
100
AcDbLine
 10
524.2231325072855
 20
596.388518501571
 30
0.0
 11
524.2231325072855
 21
596.388518501571
 31
0.0
  0
LINE
  5
24A
330
1F
100
AcDbEntity
  8
_DEFAULT_CAD_LAYER
 62
   252
370
     0
100
AcDbLine
 10
526.8511154470002
 20
598.4050407351623
 30
0.0
 11
526.8511154470002
 21
598.4050407351623
 31
0.0
  0
LINE
  5
24B
330
1F
100
AcDbEntity
  8
_DEFAULT_CAD_LAYER
 62
   252
370
     0
100
AcDbLine
 10
527.4715787313069
 20
598.881138958261
 30
0.0
 11
527.4715787313069
 21
598.881138958261
 31
0.0
  0
LINE
  5
24C
330
1F
100
AcDbEntity
  8
_DEFAULT_CAD_LAYER
 62
   252
370
     0
100
AcDbLine
 10
528.1091713700883
 20
599.3703809973347
 30
0.0
 11
528.1091713700883
 21
599.3703809973347
 31
0.0
  0
LINE
  5
24D
330
1F
100
AcDbEntity
  8
_DEFAULT_CAD_LAYER
 62
   252
370
     0
100
AcDbLine
 10
519.039866204547
 20
594.02907472498
 30
0.0
 11
519.039866204547
 21
594.02907472498
 31
0.0
  0
LINE
  5
24E
330
1F
100
AcDbEntity
  8
_DEFAULT_CAD_LAYER
 62
   252
370
     0
100
AcDbLine
 10
521.6261980938964
 20
596.0136369835484
 30
0.0
 11
521.6261980938964
 21
596.0136369835484
 31
0.0
  0
LINE
  5
24F
330
1F
100
AcDbEntity
  8
_DEFAULT_CAD_LAYER
 62
   252
370
     0
100
AcDbLine
 10
524.283931783872
 20
598.0529877707277
 30
0.0
 11
524.283931783872
 21
598.0529877707277
 31
0.0
  0
LINE
  5
250
330
1F
100
AcDbEntity
  8
_DEFAULT_CAD_LAYER
 62
   252
370
     0
100
AcDbLine
 10
519.100665481133
 20
595.693543994137
 30
0.0
 11
519.100665481133
 21
595.693543994137
 31
0.0
  0
LINE
  5
251
330
1F
100
AcDbEntity
  8
_DEFAULT_CAD_LAYER
 62
   252
370
     0
100
AcDbLine
 10
521.461605385211
 20
597.5051568995326
 30
0.0
 11
521.461605385211
 21
597.5051568995326
 31
0.0
  0
LINE
  5
252
330
1F
100
AcDbEntity
  8
_DEFAULT_CAD_LAYER
 62
   252
370
     0
100
AcDbLine
 10
523.8877246117942
 20
599.3667836581445
 30
0.0
 11
523.8877246117942
 21
599.3667836581445
 31
0.0
  0
LINE
  5
253
330
1F
100
AcDbEntity
  8
_DEFAULT_CAD_LAYER
 62
   252
370
     0
100
AcDbLine
 10
519.1614647577194
 20
597.3580132632936
 30
0.0
 11
519.1614647577194
 21
597.3580132632936
 31
0.0
  0
LINE
  5
254
330
1F
100
AcDbEntity
  8
_DEFAULT_CAD_LAYER
 62
   252
370
     0
100
AcDbLine
 10
520.4514267710728
 20
598.3478359296074
 30
0.0
 11
520.4514267710728
 21
598.3478359296074
 31
0.0
  0
LINE
  5
255
330
1F
100
AcDbEntity
  8
_DEFAULT_CAD_LAYER
 62
   252
370
     0
100
AcDbLine
 10
521.7770012326475
 20
599.3649849885494
 30
0.0
 11
521.7770012326475
 21
599.3649849885494
 31
0.0
  0
LINE
  5
256
330
1F
100
AcDbEntity
  8
_DEFAULT_CAD_LAYER
 62
   252
370
     0
100
AcDbLine
 10
519.2222640343059
 20
599.0224825324501
 30
0.0
 11
519.2222640343059
 21
599.0224825324501
 31
0.0
  0
LINE
  5
257
330
1F
100
AcDbEntity
  8
_DEFAULT_CAD_LAYER
 62
   252
370
     0
100
AcDbLine
 10
519.4412481569348
 20
599.1905149596821
 30
0.0
 11
519.4412481569348
 21
599.1905149596821
 31
0.0
  0
LINE
  5
258
330
1F
100
AcDbEntity
  8
_DEFAULT_CAD_LAYER
 62
   252
370
     0
100
AcDbLine
 10
519.6662778535011
 20
599.3631863189543
 30
0.0
 11
519.6662778535011
 21
599.3631863189543
 31
0.0
  0
LINE
  5
259
330
1F
100
AcDbEntity
  8
_DEFAULT_CAD_LAYER
 62
   252
370
     0
100
AcDbLine
 10
518.5617467074749
 20
591.746866704981
 30
0.0
 11
518.5617467074749
 21
591.746866704981
 31
0.0
  0
LINE
  5
25A
330
1F
100
AcDbEntity
  8
_DEFAULT_CAD_LAYER
 62
   252
370
     0
100
AcDbLine
 10
519.1694853411515
 20
591.8268770139848
 30
0.0
 11
519.1694853411515
 21
591.8268770139848
 31
0.0
  0
LINE
  5
25B
330
1F
100
AcDbEntity
  8
_DEFAULT_CAD_LAYER
 62
   252
370
     0
100
AcDbLine
 10
520.1829133768897
 20
591.9602973460148
 30
0.0
 11
520.1829133768897
 21
591.9602973460148
 31
0.0
  0
LINE
  5
25C
330
1F
100
AcDbEntity
  8
_DEFAULT_CAD_LAYER
 62
   252
370
     0
100
AcDbLine
 10
521.4346125143742
 20
592.1250866636927
 30
0.0
 11
521.4346125143742
 21
592.1250866636927
 31
0.0
  0
LINE
  5
25D
330
1F
100
AcDbEntity
  8
_DEFAULT_CAD_LAYER
 62
   252
370
     0
100
AcDbLine
 10
523.3282721995981
 20
592.374391690833
 30
0.0
 11
523.3282721995981
 21
592.374391690833
 31
0.0
  0
LINE
  5
25E
330
1F
100
AcDbEntity
  8
_DEFAULT_CAD_LAYER
 62
   252
370
     0
100
AcDbLine
 10
526.4860240830737
 20
592.7901176130539
 30
0.0
 11
526.4860240830737
 21
592.7901176130539
 31
0.0
  0
LINE
  5
25F
330
1F
100
AcDbEntity
  8
_DEFAULT_CAD_LAYER
 62
   252
370
     0
100
AcDbLine
 10
527.7377232205581
 20
592.9549069307317
 30
0.0
 11
527.7377232205581
 21
592.9549069307317
 31
0.0
  0
LINE
  5
260
330
1F
100
AcDbEntity
  8
_DEFAULT_CAD_LAYER
 62
   252
370
     0
100
AcDbLine
 10
528.530556295567
 20
593.0592853852265
 30
0.0
 11
528.530556295567
 21
593.0592853852265
 31
0.0
  0
LINE
  5
261
330
1F
100
AcDbEntity
  8
_DEFAULT_CAD_LAYER
 62
   252
370
     0
100
AcDbLine
 10
529.8526365803331
 20
593.2333405567271
 30
0.0
 11
529.8526365803331
 21
593.2333405567271
 31
0.0
  0
LINE
  5
262
330
1F
100
AcDbEntity
  8
_DEFAULT_CAD_LAYER
 62
   252
370
     0
100
AcDbLine
 10
518.2905960963262
 20
593.5100588009957
 30
0.0
 11
518.2905960963262
 21
593.5100588009957
 31
0.0
  0
LINE
  5
263
330
1F
100
AcDbEntity
  8
_DEFAULT_CAD_LAYER
 62
   252
370
     0
100
AcDbLine
 10
519.4930769772778
 20
593.668368412274
 30
0.0
 11
519.4930769772778
 21
593.668368412274
 31
0.0
  0
LINE
  5
264
330
1F
100
AcDbEntity
  8
_DEFAULT_CAD_LAYER
 62
   252
370
     0
100
AcDbLine
 10
521.4982610641003
 20
593.9323559054268
 30
0.0
 11
521.4982610641003
 21
593.9323559054268
 31
0.0
  0
LINE
  5
265
330
1F
100
AcDbEntity
  8
_DEFAULT_CAD_LAYER
 62
   252
370
     0
100
AcDbLine
 10
522.7499602015848
 20
594.0971452231046
 30
0.0
 11
522.7499602015848
 21
594.0971452231046
 31
0.0
  0
LINE
  5
266
330
1F
100
AcDbEntity
  8
_DEFAULT_CAD_LAYER
 62
   252
370
     0
100
AcDbLine
 10
524.6436198868088
 20
594.3464502502449
 30
0.0
 11
524.6436198868088
 21
594.3464502502449
 31
0.0
  0
LINE
  5
267
330
1F
100
AcDbEntity
  8
_DEFAULT_CAD_LAYER
 62
   252
370
     0
100
AcDbLine
 10
527.8013717702844
 20
594.7621761724658
 30
0.0
 11
527.8013717702844
 21
594.7621761724658
 31
0.0
  0
LINE
  5
268
330
1F
100
AcDbEntity
  8
_DEFAULT_CAD_LAYER
 62
   252
370
     0
100
AcDbLine
 10
529.0530709077689
 20
594.9269654901436
 30
0.0
 11
529.0530709077689
 21
594.9269654901436
 31
0.0
  0
LINE
  5
269
330
1F
100
AcDbEntity
  8
_DEFAULT_CAD_LAYER
 62
   252
370
     0
100
AcDbLine
 10
529.3528099528322
 20
594.9664268840506
 30
0.0
 11
529.3528099528322
 21
594.9664268840506
 31
0.0
  0
LINE
  5
26A
330
1F
100
AcDbEntity
  8
_DEFAULT_CAD_LAYER
 62
   252
370
     0
100
AcDbLine
 10
529.8526365803331
 20
595.0322303079218
 30
0.0
 11
529.8526365803331
 21
595.0322303079218
 31
0.0
  0
LINE
  5
26B
330
1F
100
AcDbEntity
  8
_DEFAULT_CAD_LAYER
 62
   252
370
     0
100
AcDbLine
 10
518.2905960963262
 20
595.3089485521904
 30
0.0
 11
518.2905960963262
 21
595.3089485521904
 31
0.0
  0
LINE
  5
26C
330
1F
100
AcDbEntity
  8
_DEFAULT_CAD_LAYER
 62
   252
370
     0
100
AcDbLine
 10
519.9861710072234
 20
595.5321752240566
 30
0.0
 11
519.9861710072234
 21
595.5321752240566
 31
0.0
  0
LINE
  5
26D
330
1F
100
AcDbEntity
  8
_DEFAULT_CAD_LAYER
 62
   252
370
     0
100
AcDbLine
 10
522.8136087513112
 20
595.9044144648386
 30
0.0
 11
522.8136087513112
 21
595.9044144648386
 31
0.0
  0
LINE
  5
26E
330
1F
100
AcDbEntity
  8
_DEFAULT_CAD_LAYER
 62
   252
370
     0
100
AcDbLine
 10
524.0653078887957
 20
596.0692037825164
 30
0.0
 11
524.0653078887957
 21
596.0692037825164
 31
0.0
  0
LINE
  5
26F
330
1F
100
AcDbEntity
  8
_DEFAULT_CAD_LAYER
 62
   252
370
     0
100
AcDbLine
 10
525.9589675740197
 20
596.3185088096567
 30
0.0
 11
525.9589675740197
 21
596.3185088096567
 31
0.0
  0
LINE
  5
270
330
1F
100
AcDbEntity
  8
_DEFAULT_CAD_LAYER
 62
   252
370
     0
100
AcDbLine
 10
529.1167194574953
 20
596.7342347318776
 30
0.0
 11
529.1167194574953
 21
596.7342347318776
 31
0.0
  0
LINE
  5
271
330
1F
100
AcDbEntity
  8
_DEFAULT_CAD_LAYER
 62
   252
370
     0
100
AcDbLine
 10
519.0775448698223
 20
597.2114420748893
 30
0.0
 11
519.0775448698223
 21
597.2114420748893
 31
0.0
  0
LINE
  5
272
330
1F
100
AcDbEntity
  8
_DEFAULT_CAD_LAYER
 62
   252
370
     0
100
AcDbLine
 10
520.9712045550464
 20
597.4607471020296
 30
0.0
 11
520.9712045550464
 21
597.4607471020296
 31
0.0
  0
LINE
  5
273
330
1F
100
AcDbEntity
  8
_DEFAULT_CAD_LAYER
 62
   252
370
     0
100
AcDbLine
 10
524.128956438522
 20
597.8764730242506
 30
0.0
 11
524.128956438522
 21
597.8764730242506
 31
0.0
  0
LINE
  5
274
330
1F
100
AcDbEntity
  8
_DEFAULT_CAD_LAYER
 62
   252
370
     0
100
AcDbLine
 10
525.3806555760063
 20
598.0412623419282
 30
0.0
 11
525.3806555760063
 21
598.0412623419282
 31
0.0
  0
LINE
  5
275
330
1F
100
AcDbEntity
  8
_DEFAULT_CAD_LAYER
 62
   252
370
     0
100
AcDbLine
 10
527.0570998779227
 20
598.2619704213417
 30
0.0
 11
527.0570998779227
 21
598.2619704213417
 31
0.0
  0
LINE
  5
276
330
1F
100
AcDbEntity
  8
_DEFAULT_CAD_LAYER
 62
   252
370
     0
100
AcDbLine
 10
529.8526365803331
 20
598.6300098103113
 30
0.0
 11
529.8526365803331
 21
598.6300098103113
 31
0.0
  0
LINE
  5
277
330
1F
100
AcDbEntity
  8
_DEFAULT_CAD_LAYER
 62
   252
370
     0
100
AcDbLine
 10
518.2905960963261
 20
598.9067280545797
 30
0.0
 11
518.2905960963261
 21
598.9067280545797
 31
0.0
  0
LINE
  5
278
330
1F
100
AcDbEntity
  8
_DEFAULT_CAD_LAYER
 62
   252
370
     0
100
AcDbLine
 10
518.6094657503703
 20
598.9487080409394
 30
0.0
 11
518.6094657503703
 21
598.9487080409394
 31
0.0
  0
LINE
  5
279
330
1F
100
AcDbEntity
  8
_DEFAULT_CAD_LAYER
 62
   252
370
     0
100
AcDbLine
 10
519.1411934195487
 20
599.0187113166231
 30
0.0
 11
519.1411934195487
 21
599.0187113166231
 31
0.0
  0
LINE
  5
27A
330
1F
100
AcDbEntity
  8
_DEFAULT_CAD_LAYER
 62
   252
370
     0
100
AcDbLine
 10
520.3928925570331
 20
599.1835006343009
 30
0.0
 11
520.3928925570331
 21
599.1835006343009
 31
0.0
  0
LINE
  5
27B
330
1F
100
AcDbEntity
  8
_DEFAULT_CAD_LAYER
 62
   252
370
     0
100
AcDbLine
 10
520.9096512325567
 20
599.2515332045836
 30
0.0
 11
520.9096512325567
 21
599.2515332045836
 31
0.0
  0
LINE
  5
27C
330
1F
100
AcDbEntity
  8
_DEFAULT_CAD_LAYER
 62
   252
370
     0
100
AcDbLine
 10
521.7713666155634
 20
599.3649801869659
 30
0.0
 11
521.7713666155634
 21
599.3649801869659
 31
0.0
  0
LINE
  5
27D
330
1F
100
AcDbEntity
  8
_DEFAULT_CAD_LAYER
 62
   252
370
     0
100
AcDbLine
 10
519.4330993877785
 20
592.3793898475296
 30
0.0
 11
519.4330993877785
 21
592.3793898475296
 31
0.0
  0
LINE
  5
27E
330
1F
100
AcDbEntity
  8
_DEFAULT_CAD_LAYER
 62
   252
370
     0
100
AcDbLine
 10
519.6740854203152
 20
592.2258648129305
 30
0.0
 11
519.6740854203152
 21
592.2258648129305
 31
0.0
  0
LINE
  5
27F
330
1F
100
AcDbEntity
  8
_DEFAULT_CAD_LAYER
 62
   252
370
     0
100
AcDbLine
 10
520.42596184183
 20
591.746866704981
 30
0.0
 11
520.42596184183
 21
591.746866704981
 31
0.0
  0
LINE
  5
280
330
1F
100
AcDbEntity
  8
_DEFAULT_CAD_LAYER
 62
   252
370
     0
100
AcDbLine
 10
518.2905960963262
 20
594.6948823519027
 30
0.0
 11
518.2905960963262
 21
594.6948823519027
 31
0.0
  0
LINE
  5
281
330
1F
100
AcDbEntity
  8
_DEFAULT_CAD_LAYER
 62
   252
370
     0
100
AcDbLine
 10
519.3235440108115
 20
594.036821954621
 30
0.0
 11
519.3235440108115
 21
594.036821954621
 31
0.0
  0
LINE
  5
282
330
1F
100
AcDbEntity
  8
_DEFAULT_CAD_LAYER
 62
   252
370
     0
100
AcDbLine
 10
522.5463415040057
 20
591.983673515102
 30
0.0
 11
522.5463415040057
 21
591.983673515102
 31
0.0
  0
LINE
  5
283
330
1F
100
AcDbEntity
  8
_DEFAULT_CAD_LAYER
 62
   252
370
     0
100
AcDbLine
 10
518.2905960963261
 20
596.2825199864171
 30
0.0
 11
518.2905960963261
 21
596.2825199864171
 31
0.0
  0
LINE
  5
284
330
1F
100
AcDbEntity
  8
_DEFAULT_CAD_LAYER
 62
   252
370
     0
100
AcDbLine
 10
519.0249459938917
 20
595.814687505651
 30
0.0
 11
519.0249459938917
 21
595.814687505651
 31
0.0
  0
LINE
  5
285
330
1F
100
AcDbEntity
  8
_DEFAULT_CAD_LAYER
 62
   252
370
     0
100
AcDbLine
 10
521.3161176742964
 20
594.3550501656609
 30
0.0
 11
521.3161176742964
 21
594.3550501656609
 31
0.0
  0
LINE
  5
286
330
1F
100
AcDbEntity
  8
_DEFAULT_CAD_LAYER
 62
   252
370
     0
100
AcDbLine
 10
524.4504445766688
 20
593.9459013430251
 30
0.0
 11
524.4504445766688
 21
593.9459013430251
 31
0.0
  0
LINE
  5
287
330
1F
100
AcDbEntity
  8
_DEFAULT_CAD_LAYER
 62
   252
370
     0
100
AcDbLine
 10
525.2882584006784
 20
593.4121550716552
 30
0.0
 11
525.2882584006784
 21
593.4121550716552
 31
0.0
  0
LINE
  5
288
330
1F
100
AcDbEntity
  8
_DEFAULT_CAD_LAYER
 62
   252
370
     0
100
AcDbLine
 10
527.9022375315882
 20
591.746866704981
 30
0.0
 11
527.9022375315882
 21
591.746866704981
 31
0.0
  0
LINE
  5
289
330
1F
100
AcDbEntity
  8
_DEFAULT_CAD_LAYER
 62
   252
370
     0
100
AcDbLine
 10
518.2905960963261
 20
597.8701576209315
 30
0.0
 11
518.2905960963261
 21
597.8701576209315
 31
0.0
  0
LINE
  5
28A
330
1F
100
AcDbEntity
  8
_DEFAULT_CAD_LAYER
 62
   252
370
     0
100
AcDbLine
 10
518.726347976972
 20
597.5925530566811
 30
0.0
 11
518.726347976972
 21
597.5925530566811
 31
0.0
  0
LINE
  5
28B
330
1F
100
AcDbEntity
  8
_DEFAULT_CAD_LAYER
 62
   252
370
     0
100
AcDbLine
 10
520.0858938445871
 20
596.7264268162198
 30
0.0
 11
520.0858938445871
 21
596.7264268162198
 31
0.0
  0
LINE
  5
28C
330
1F
100
AcDbEntity
  8
_DEFAULT_CAD_LAYER
 62
   252
370
     0
100
AcDbLine
 10
523.2202207469595
 20
596.3172779935838
 30
0.0
 11
523.2202207469595
 21
596.3172779935838
 31
0.0
  0
LINE
  5
28D
330
1F
100
AcDbEntity
  8
_DEFAULT_CAD_LAYER
 62
   252
370
     0
100
AcDbLine
 10
524.2744600542256
 20
595.6456534831503
 30
0.0
 11
524.2744600542256
 21
595.6456534831503
 31
0.0
  0
LINE
  5
28E
330
1F
100
AcDbEntity
  8
_DEFAULT_CAD_LAYER
 62
   252
370
     0
100
AcDbLine
 10
527.563686692896
 20
593.5501850105977
 30
0.0
 11
527.563686692896
 21
593.5501850105977
 31
0.0
  0
LINE
  5
28F
330
1F
100
AcDbEntity
  8
_DEFAULT_CAD_LAYER
 62
   252
370
     0
100
AcDbLine
 10
518.4407416810491
 20
599.3621419686274
 30
0.0
 11
518.4407416810491
 21
599.3621419686274
 31
0.0
  0
LINE
  5
290
330
1F
100
AcDbEntity
  8
_DEFAULT_CAD_LAYER
 62
   252
370
     0
100
AcDbLine
 10
518.5414524416872
 20
599.2979821380816
 30
0.0
 11
518.5414524416872
 21
599.2979821380816
 31
0.0
  0
LINE
  5
291
330
1F
100
AcDbEntity
  8
_DEFAULT_CAD_LAYER
 62
   252
370
     0
100
AcDbLine
 10
518.8556700148779
 20
599.0978034667786
 30
0.0
 11
518.8556700148779
 21
599.0978034667786
 31
0.0
  0
LINE
  5
292
330
1F
100
AcDbEntity
  8
_DEFAULT_CAD_LAYER
 62
   252
370
     0
100
AcDbLine
 10
521.9899969172504
 20
598.6886546441426
 30
0.0
 11
521.9899969172504
 21
598.6886546441426
 31
0.0
  0
LINE
  5
293
330
1F
100
AcDbEntity
  8
_DEFAULT_CAD_LAYER
 62
   252
370
     0
100
AcDbLine
 10
523.0442362245166
 20
598.0170301337091
 30
0.0
 11
523.0442362245166
 21
598.0170301337091
 31
0.0
  0
LINE
  5
294
330
1F
100
AcDbEntity
  8
_DEFAULT_CAD_LAYER
 62
   252
370
     0
100
AcDbLine
 10
526.3334628631867
 20
595.9215616611564
 30
0.0
 11
526.3334628631867
 21
595.9215616611564
 31
0.0
  0
LINE
  5
295
330
1F
100
AcDbEntity
  8
_DEFAULT_CAD_LAYER
 62
   252
370
     0
100
AcDbLine
 10
529.467789765559
 20
595.5124128385204
 30
0.0
 11
529.467789765559
 21
595.5124128385204
 31
0.0
  0
LINE
  5
296
330
1F
100
AcDbEntity
  8
_DEFAULT_CAD_LAYER
 62
   252
370
     0
100
AcDbLine
 10
529.5611991866207
 20
595.4529044742828
 30
0.0
 11
529.5611991866207
 21
595.4529044742828
 31
0.0
  0
LINE
  5
297
330
1F
100
AcDbEntity
  8
_DEFAULT_CAD_LAYER
 62
   252
370
     0
100
AcDbLine
 10
529.8526365803331
 20
595.2672383778614
 30
0.0
 11
529.8526365803331
 21
595.2672383778614
 31
0.0
  0
LINE
  5
298
330
1F
100
AcDbEntity
  8
_DEFAULT_CAD_LAYER
 62
   252
370
     0
100
AcDbLine
 10
523.4182674364208
 20
599.3663836065053
 30
0.0
 11
523.4182674364208
 21
599.3663836065053
 31
0.0
  0
LINE
  5
299
330
1F
100
AcDbEntity
  8
_DEFAULT_CAD_LAYER
 62
   252
370
     0
100
AcDbLine
 10
523.8272411250268
 20
599.1058386320417
 30
0.0
 11
523.8272411250268
 21
599.1058386320417
 31
0.0
  0
LINE
  5
29A
330
1F
100
AcDbEntity
  8
_DEFAULT_CAD_LAYER
 62
   252
370
     0
100
AcDbLine
 10
525.1032390334774
 20
598.2929383117153
 30
0.0
 11
525.1032390334774
 21
598.2929383117153
 31
0.0
  0
LINE
  5
29B
330
1F
100
AcDbEntity
  8
_DEFAULT_CAD_LAYER
 62
   252
370
     0
100
AcDbLine
 10
528.2375659358498
 20
597.8837894890792
 30
0.0
 11
528.2375659358498
 21
597.8837894890792
 31
0.0
  0
LINE
  5
29C
330
1F
100
AcDbEntity
  8
_DEFAULT_CAD_LAYER
 62
   252
370
     0
100
AcDbLine
 10
528.6295733738312
 20
597.6340532083259
 30
0.0
 11
528.6295733738312
 21
597.6340532083259
 31
0.0
  0
LINE
  5
29D
330
1F
100
AcDbEntity
  8
_DEFAULT_CAD_LAYER
 62
   252
370
     0
100
AcDbLine
 10
529.8526365803331
 20
596.8548760123757
 30
0.0
 11
529.8526365803331
 21
596.8548760123757
 31
0.0
  0
LINE
  5
29E
330
1F
100
AcDbEntity
  8
_DEFAULT_CAD_LAYER
 62
   252
370
     0
100
AcDbLine
 10
528.3957931917926
 20
599.3706252443834
 30
0.0
 11
528.3957931917926
 21
599.3706252443834
 31
0.0
  0
LINE
  5
29F
330
1F
100
AcDbEntity
  8
_DEFAULT_CAD_LAYER
 62
   252
370
     0
100
AcDbLine
 10
528.7493959560014
 20
599.1453554391666
 30
0.0
 11
528.7493959560014
 21
599.1453554391666
 31
0.0
  0
LINE
  5
2A0
330
1F
100
AcDbEntity
  8
_DEFAULT_CAD_LAYER
 62
   252
370
     0
100
AcDbLine
 10
529.8526365803331
 20
598.4425136468902
 30
0.0
 11
529.8526365803331
 21
598.4425136468902
 31
0.0
  0
LINE
  5
2A1
330
1F
100
AcDbEntity
  8
_DEFAULT_CAD_LAYER
 62
   252
370
     0
100
AcDbLine
 10
518.2905960963262
 20
592.7211492536125
 30
0.0
 11
518.2905960963262
 21
592.7211492536125
 31
0.0
  0
LINE
  5
2A2
330
1F
100
AcDbEntity
  8
_DEFAULT_CAD_LAYER
 62
   252
370
     0
100
AcDbLine
 10
518.7005058460576
 20
592.3455361713999
 30
0.0
 11
518.7005058460576
 21
592.3455361713999
 31
0.0
  0
LINE
  5
2A3
330
1F
100
AcDbEntity
  8
_DEFAULT_CAD_LAYER
 62
   252
370
     0
100
AcDbLine
 10
519.3538389240911
 20
591.746866704981
 30
0.0
 11
519.3538389240911
 21
591.746866704981
 31
0.0
  0
LINE
  5
2A4
330
1F
100
AcDbEntity
  8
_DEFAULT_CAD_LAYER
 62
   252
370
     0
100
AcDbLine
 10
518.2905960963261
 20
595.8936325013954
 30
0.0
 11
518.2905960963261
 21
595.8936325013954
 31
0.0
  0
LINE
  5
2A5
330
1F
100
AcDbEntity
  8
_DEFAULT_CAD_LAYER
 62
   252
370
     0
100
AcDbLine
 10
519.1079848910898
 20
595.1446336674609
 30
0.0
 11
519.1079848910898
 21
595.1446336674609
 31
0.0
  0
LINE
  5
2A6
330
1F
100
AcDbEntity
  8
_DEFAULT_CAD_LAYER
 62
   252
370
     0
100
AcDbLine
 10
520.4107768778208
 20
593.9508447567591
 30
0.0
 11
520.4107768778208
 21
593.9508447567591
 31
0.0
  0
LINE
  5
2A7
330
1F
100
AcDbEntity
  8
_DEFAULT_CAD_LAYER
 62
   252
370
     0
100
AcDbLine
 10
523.3647512351121
 20
594.4165092137077
 30
0.0
 11
523.3647512351121
 21
594.4165092137077
 31
0.0
  0
LINE
  5
2A8
330
1F
100
AcDbEntity
  8
_DEFAULT_CAD_LAYER
 62
   252
370
     0
100
AcDbLine
 10
524.4879495251377
 20
593.3872876059543
 30
0.0
 11
524.4879495251377
 21
593.3872876059543
 31
0.0
  0
LINE
  5
2A9
330
1F
100
AcDbEntity
  8
_DEFAULT_CAD_LAYER
 62
   252
370
     0
100
AcDbLine
 10
526.2781547997014
 20
591.746866704981
 30
0.0
 11
526.2781547997014
 21
591.746866704981
 31
0.0
  0
LINE
  5
2AA
330
1F
100
AcDbEntity
  8
_DEFAULT_CAD_LAYER
 62
   252
370
     0
100
AcDbLine
 10
518.2905960963261
 20
599.0661157491779
 30
0.0
 11
518.2905960963261
 21
599.0661157491779
 31
0.0
  0
LINE
  5
2AB
330
1F
100
AcDbEntity
  8
_DEFAULT_CAD_LAYER
 62
   252
370
     0
100
AcDbLine
 10
519.2022388020828
 20
598.2307491183275
 30
0.0
 11
519.2022388020828
 21
598.2307491183275
 31
0.0
  0
LINE
  5
2AC
330
1F
100
AcDbEntity
  8
_DEFAULT_CAD_LAYER
 62
   252
370
     0
100
AcDbLine
 10
520.6552570223348
 20
596.8993032266952
 30
0.0
 11
520.6552570223348
 21
596.8993032266952
 31
0.0
  0
LINE
  5
2AD
330
1F
100
AcDbEntity
  8
_DEFAULT_CAD_LAYER
 62
   252
370
     0
100
AcDbLine
 10
529.4263495670581
 20
592.0345609455564
 30
0.0
 11
529.4263495670581
 21
592.0345609455564
 31
0.0
  0
LINE
  5
2AE
330
1F
100
AcDbEntity
  8
_DEFAULT_CAD_LAYER
 62
   252
370
     0
100
AcDbLine
 10
529.5473911215015
 20
591.9236467958684
 30
0.0
 11
529.5473911215015
 21
591.9236467958684
 31
0.0
  0
LINE
  5
2AF
330
1F
100
AcDbEntity
  8
_DEFAULT_CAD_LAYER
 62
   252
370
     0
100
AcDbLine
 10
529.7403127375067
 20
591.746866704981
 30
0.0
 11
529.7403127375067
 21
591.746866704981
 31
0.0
  0
LINE
  5
2B0
330
1F
100
AcDbEntity
  8
_DEFAULT_CAD_LAYER
 62
   252
370
     0
100
AcDbLine
 10
523.6092313796262
 20
597.364967683644
 30
0.0
 11
523.6092313796262
 21
597.364967683644
 31
0.0
  0
LINE
  5
2B1
330
1F
100
AcDbEntity
  8
_DEFAULT_CAD_LAYER
 62
   252
370
     0
100
AcDbLine
 10
524.8073070519426
 20
596.2671335962685
 30
0.0
 11
524.8073070519426
 21
596.2671335962685
 31
0.0
  0
LINE
  5
2B2
330
1F
100
AcDbEntity
  8
_DEFAULT_CAD_LAYER
 62
   252
370
     0
100
AcDbLine
 10
526.7168553542809
 20
594.517354958544
 30
0.0
 11
526.7168553542809
 21
594.517354958544
 31
0.0
  0
LINE
  5
2B3
330
1F
100
AcDbEntity
  8
_DEFAULT_CAD_LAYER
 62
   252
370
     0
100
AcDbLine
 10
529.6708297115722
 20
594.9830194154927
 30
0.0
 11
529.6708297115722
 21
594.9830194154927
 31
0.0
  0
LINE
  5
2B4
330
1F
100
AcDbEntity
  8
_DEFAULT_CAD_LAYER
 62
   252
370
     0
100
AcDbLine
 10
529.7409213276425
 20
594.9187922826501
 30
0.0
 11
529.7409213276425
 21
594.9187922826501
 31
0.0
  0
LINE
  5
2B5
330
1F
100
AcDbEntity
  8
_DEFAULT_CAD_LAYER
 62
   252
370
     0
100
AcDbLine
 10
529.8526365803331
 20
594.8164241139965
 30
0.0
 11
529.8526365803331
 21
594.8164241139965
 31
0.0
  0
LINE
  5
2B6
330
1F
100
AcDbEntity
  8
_DEFAULT_CAD_LAYER
 62
   252
370
     0
100
AcDbLine
 10
524.8858622916224
 20
599.3676342290503
 30
0.0
 11
524.8858622916224
 21
599.3676342290503
 31
0.0
  0
LINE
  5
2B7
330
1F
100
AcDbEntity
  8
_DEFAULT_CAD_LAYER
 62
   252
370
     0
100
AcDbLine
 10
525.6860150701883
 20
598.6344292940737
 30
0.0
 11
525.6860150701883
 21
598.6344292940737
 31
0.0
  0
LINE
  5
2B8
330
1F
100
AcDbEntity
  8
_DEFAULT_CAD_LAYER
 62
   252
370
     0
100
AcDbLine
 10
526.9613354987949
 20
597.4658134284801
 30
0.0
 11
526.9613354987949
 21
597.4658134284801
 31
0.0
  0
LWPOLYLINE
  5
2B9
330
1F
100
AcDbEntity
  8
_DEFAULT_CAD_LAYER
 62
   252
370
    18
100
AcDbPolyline
 90
        4
 70
     1
 43
0.0
 10
518.2905960963261
 20
591.746866704981
 10
518.2905960963262
 20
599.3620140208817
 10
529.8526365803331
 20
599.371866704981
 10
529.8526365803331
 20
591.746866704981
  0
LINE
  5
2BD
330
1F
100
AcDbEntity
  8
Text
100
AcDbLine
 10
534.6425164336265
 20
614.9569091537257
 30
0.0
 11
535.1004617092528
 21
615.8803733514787
 31
0.0
  0
LINE
  5
2BE
330
1F
100
AcDbEntity
  8
Text
100
AcDbLine
 10
534.6425164336265
 20
614.9569091537257
 30
0.0
 11
535.481157181651
 21
615.556226845566
 31
0.0
  0
LWPOLYLINE
  5
2BF
330
1F
100
AcDbEntity
  8
Text
100
AcDbPolyline
 90
        3
 70
     0
 43
0.0
 10
543.1645123399363
 20
620.0459099057904
 10
538.9755908512882
 20
620.0459099057905
 10
534.6425164336265
 20
614.9569091537257
  0
MTEXT
  5
2C0
330
1F
100
AcDbEntity
  8
Text
 62
   156
370
     9
100
AcDbMText
 10
485.3820903852716
 20
611.9988278837214
 30
0.0
 40
1.25
 41
19.26224934101058
 46
0.0
 71
     7
 72
     1
  1
\fArial|b0|i0|c0|p0;STARTER TRACK
 73
     1
 44
1.0
1001
CHIEFARC-LNWT
1070
    10
1001
CHIEFARC_RTFBINARY
1000

1001
CHIEFARC_SIMPLE_TEXT_BINARY
1000

1001
CHIEFARC_AUTOHEIGHT
1070
     0
1001
CHIEFARC_AUTOWIDTH
1070
     1
  0
MTEXT
  5
2C5
330
1F
100
AcDbEntity
  8
Text
 62
   156
370
     9
100
AcDbMText
 10
485.3820903852716
 20
610.0613278837214
 30
0.0
 40
1.25
 41
19.26224934101058
 46
0.0
 71
     7
 72
     1
  1
\fArial|b0|i0|c0|p0;WITH WEEP HOLES
 73
     1
 44
1.0
1001
CHIEFARC-LNWT
1070
    10
1001
CHIEFARC_RTFBINARY
1000

1001
CHIEFARC_SIMPLE_TEXT_BINARY
1000

1001
CHIEFARC_AUTOHEIGHT
1070
     0
1001
CHIEFARC_AUTOWIDTH
1070
     1
  0
MTEXT
  5
2C6
330
1F
100
AcDbEntity
  8
Text
 62
   156
370
     9
100
AcDbMText
 10
543.7550380148459
 20
620.0527142303622
 30
0.0
 40
1.25
 41
22.15
 46
0.0
 71
     7
 72
     1
  1
\fArial|b0|i0|c0|p0;FLOOR SYSTEM TYPICAL
 73
     1
 44
1.0
1001
CHIEFARC-LNWT
1070
    10
1001
CHIEFARC_RTFBINARY
1000

1001
CHIEFARC_SIMPLE_TEXT_BINARY
1000

1001
CHIEFARC-WIDTHEXPANDED
1070
     1
1001
CHIEFARC_AUTOHEIGHT
1070
     1
1001
CHIEFARC_AUTOWIDTH
1070
     1
  0
MTEXT
  5
2C8
330
1F
100
AcDbEntity
  8
Text
 62
   156
370
     9
100
AcDbMText
 10
485.4595326591065
 20
618.8372314857098
 30
0.0
 40
1.25
 41
19.15
 46
0.0
 71
     7
 72
     1
  1
\fArial|b0|i0|c0|p0;WEATHER RESISTIVE
 73
     1
 44
1.0
1001
CHIEFARC-LNWT
1070
    10
1001
CHIEFARC_RTFBINARY
1000

1001
CHIEFARC_SIMPLE_TEXT_BINARY
1000

1001
CHIEFARC-WIDTHEXPANDED
1070
     1
1001
CHIEFARC_AUTOHEIGHT
1070
     0
1001
CHIEFARC_AUTOWIDTH
1070
     1
  0
MTEXT
  5
2C9
330
1F
100
AcDbEntity
  8
Text
 62
   156
370
     9
100
AcDbMText
 10
485.4595326591065
 20
616.5622314857098
 30
0.0
 40
1.25
 41
18.24159486328207
 46
0.0
 71
     7
 72
     1
  1
\fArial|b0|i0|c0|p0;BARRIER (WRB)
 73
     1
 44
1.0
1001
CHIEFARC-LNWT
1070
    10
1001
CHIEFARC_RTFBINARY
1000

1001
CHIEFARC_SIMPLE_TEXT_BINARY
1000

1001
CHIEFARC_AUTOHEIGHT
1070
     0
1001
CHIEFARC_AUTOWIDTH
1070
     1
  0
MTEXT
  5
2CA
330
1F
100
AcDbEntity
  8
Text
 62
   156
370
     9
100
AcDbMText
 10
485.909094533932
 20
653.8919131292862
 30
0.0
 40
1.25
 41
16.0
 46
0.0
 71
     7
 72
     1
  1
\fArial|b0|i0|c0|p0;EXTERIOR FINISH
 73
     1
 44
1.0
1001
CHIEFARC-LNWT
1070
    10
1001
CHIEFARC_RTFBINARY
1000

1001
CHIEFARC_SIMPLE_TEXT_BINARY
1000

1001
CHIEFARC-WIDTHEXPANDED
1070
     1
1001
CHIEFARC_AUTOHEIGHT
1070
     1
1001
CHIEFARC_AUTOWIDTH
1070
     1
  0
MTEXT
  5
2CB
330
1F
100
AcDbEntity
  8
Text
 62
   156
370
     9
100
AcDbMText
 10
485.9090945339319
 20
649.891913129286
 30
0.0
 40
1.25
 41
18.55
 46
0.0
 71
     7
 72
     1
  1
\fArial|b0|i0|c0|p0;DRIP CAP FLASHING
 73
     1
 44
1.0
1001
CHIEFARC-LNWT
1070
    10
1001
CHIEFARC_RTFBINARY
1000

1001
CHIEFARC_SIMPLE_TEXT_BINARY
1000

1001
CHIEFARC-WIDTHEXPANDED
1070
     1
1001
CHIEFARC_AUTOHEIGHT
1070
     1
1001
CHIEFARC_AUTOWIDTH
1070
     1
  0
MTEXT
  5
2CC
330
1F
100
AcDbEntity
  8
Text
 62
   156
370
     9
100
AcDbMText
 10
485.909094533932
 20
645.8919131292861
 30
0.0
 40
1.25
 41
10.8375
 46
0.0
 71
     7
 72
     1
  1
\fArial|b0|i0|c0|p0;STONE SILL
 73
     1
 44
1.0
1001
CHIEFARC-LNWT
1070
    10
1001
CHIEFARC_RTFBINARY
1000

1001
CHIEFARC_SIMPLE_TEXT_BINARY
1000

1001
CHIEFARC-WIDTHEXPANDED
1070
     1
1001
CHIEFARC_AUTOHEIGHT
1070
     1
1001
CHIEFARC_AUTOWIDTH
1070
     1
  0
MTEXT
  5
2CD
330
1F
100
AcDbEntity
  8
Text
 62
   156
370
     9
100
AcDbMText
 10
485.6545424136846
 20
641.0782928591676
 30
0.0
 40
1.25
 41
23.6375
 46
0.0
 71
     7
 72
     1
  1
\fArial|b0|i0|c0|p0;BRICK OR STONE VENEER
 73
     1
 44
1.0
1001
CHIEFARC-LNWT
1070
    10
1001
CHIEFARC_RTFBINARY
1000

1001
CHIEFARC_SIMPLE_TEXT_BINARY
1000

1001
CHIEFARC-WIDTHEXPANDED
1070
     1
1001
CHIEFARC_AUTOHEIGHT
1070
     1
1001
CHIEFARC_AUTOWIDTH
1070
     1
  0
MTEXT
  5
2CE
330
1F
100
AcDbEntity
  8
Text
 62
   156
370
     9
100
AcDbMText
 10
485.3820903852716
 20
627.7390587314557
 30
0.0
 40
1.25
 41
15.6875
 46
0.0
 71
     7
 72
     1
  1
\fArial|b0|i0|c0|p0;INSOFAST PANEL
 73
     1
 44
1.0
1001
CHIEFARC-LNWT
1070
    10
1001
CHIEFARC_RTFBINARY
1000

1001
CHIEFARC_SIMPLE_TEXT_BINARY
1000

1001
CHIEFARC-WIDTHEXPANDED
1070
     1
1001
CHIEFARC_AUTOHEIGHT
1070
     1
1001
CHIEFARC_AUTOWIDTH
1070
     1
  0
MTEXT
  5
2CF
330
1F
100
AcDbEntity
  8
Text
 62
   156
370
     9
100
AcDbMText
 10
485.3820903852716
 20
622.8372314857098
 30
0.0
 40
1.25
 41
22.125
 46
0.0
 71
     7
 72
     1
  1
\fArial|b0|i0|c0|p0;DRAIN & DRY CHANNELS
 73
     1
 44
1.0
1001
CHIEFARC-LNWT
1070
    10
1001
CHIEFARC_RTFBINARY
1000

1001
CHIEFARC_SIMPLE_TEXT_BINARY
1000

1001
CHIEFARC-WIDTHEXPANDED
1070
     1
1001
CHIEFARC_AUTOHEIGHT
1070
     1
1001
CHIEFARC_AUTOWIDTH
1070
     1
  0
MTEXT
  5
2D0
330
1F
100
AcDbEntity
  8
Text
 62
   156
370
     9
100
AcDbMText
 10
485.909094533932
 20
657.8919131292862
 30
0.0
 40
1.25
 41
20.6625
 46
0.0
 71
     7
 72
     1
  1
\fArial|b0|i0|c0|p0;EXTERIOR SHEATHING
 73
     1
 44
1.0
1001
CHIEFARC-LNWT
1070
    10
1001
CHIEFARC_RTFBINARY
1000

1001
CHIEFARC_SIMPLE_TEXT_BINARY
1000

1001
CHIEFARC-WIDTHEXPANDED
1070
     1
1001
CHIEFARC_AUTOHEIGHT
1070
     1
1001
CHIEFARC_AUTOWIDTH
1070
     1
  0
MTEXT
  5
2D1
330
1F
100
AcDbEntity
  8
Text
 62
   156
370
     9
100
AcDbMText
 10
485.4595326591065
 20
632.0796052245694
 30
0.0
 40
1.25
 41
10.3625
 46
0.0
 71
     7
 72
     1
  1
\fArial|b0|i0|c0|p0;WIRE LATH
 73
     1
 44
1.0
1001
CHIEFARC-LNWT
1070
    10
1001
CHIEFARC_RTFBINARY
1000

1001
CHIEFARC_SIMPLE_TEXT_BINARY
1000

1001
CHIEFARC-WIDTHEXPANDED
1070
     1
1001
CHIEFARC_AUTOHEIGHT
1070
     1
1001
CHIEFARC_AUTOWIDTH
1070
     1
  0
MTEXT
  5
2D2
330
1F
100
AcDbEntity
  8
Text
 62
   156
370
     9
100
AcDbMText
 10
485.4595326591065
 20
636.5340681222502
 30
0.0
 40
1.25
 41
14.725
 46
0.0
 71
     7
 72
     1
  1
\fArial|b0|i0|c0|p0;SCRATCH COAT
 73
     1
 44
1.0
1001
CHIEFARC-LNWT
1070
    10
1001
CHIEFARC_RTFBINARY
1000

1001
CHIEFARC_SIMPLE_TEXT_BINARY
1000

1001
CHIEFARC-WIDTHEXPANDED
1070
     1
1001
CHIEFARC_AUTOHEIGHT
1070
     1
1001
CHIEFARC_AUTOWIDTH
1070
     1
  0
MTEXT
  5
2D3
330
1F
100
AcDbEntity
  8
Text
 62
   156
370
     9
100
AcDbMText
 10
471.0000000000001
 20
572.4520670391064
 30
0.0
 40
2.0
 41
99.44000000000003
 46
0.0
 71
     7
 72
     1
  1
\fArial|b0|i0|c0|p0;ISF 05.02.03     INSOFAST - WOOD FRAMED - ABOVE GRADE - EXTERIOR - 
 73
     1
 44
1.0
1001
CHIEFARC-LNWT
1070
    10
1001
CHIEFARC_RTFBINARY
1000

1001
CHIEFARC_SIMPLE_TEXT_BINARY
1000

1001
CHIEFARC-WIDTHEXPANDED
1070
     1
1001
CHIEFARC_AUTOHEIGHT
1070
     1
1001
CHIEFARC_AUTOWIDTH
1070
     1
  0
MTEXT
  5
2D4
330
1F
100
AcDbEntity
  8
Text
 62
   156
370
     9
100
AcDbMText
 10
471.0000000000001
 20
569.3520670391064
 30
0.0
 40
2.0
 41
99.16000000000008
 46
0.0
 71
     7
 72
     1
  1
\fArial|b0|i0|c0|p0;                          MANUFACTURED STONE    
 73
     1
 44
1.0
1001
CHIEFARC-LNWT
1070
    10
1001
CHIEFARC_RTFBINARY
1000

1001
CHIEFARC_SIMPLE_TEXT_BINARY
1000

1001
CHIEFARC_AUTOHEIGHT
1070
     1
1001
CHIEFARC_AUTOWIDTH
1070
     1
  0
SOLID
  5
2D5
330
1F
100
AcDbEntity
  8
_DEFAULT_CAD_LAYER
 62
     7
100
AcDbTrace
 10
522.5020141401316
 20
618.3257017953491
 30
0.0
 11
522.5020141401316
 21
616.8257017953491
 31
0.0
 12
519.0020141401316
 22
618.3257017953491
 32
0.0
 13
519.0020141401316
 23
616.8257017953491
 33
0.0
  0
LINE
  5
2D6
330
1F
100
AcDbEntity
  8
_DEFAULT_CAD_LAYER
 62
     7
100
AcDbLine
 10
522.5020141401316
 20
618.3257017953491
 30
0.0
 11
519.0020141401316
 21
616.8257017953491
 31
0.0
  0
LINE
  5
2D7
330
1F
100
AcDbEntity
  8
_DEFAULT_CAD_LAYER
 62
     7
100
AcDbLine
 10
522.5020141401316
 20
616.8257017953491
 30
0.0
 11
519.0020141401316
 21
618.3257017953491
 31
0.0
  0
LINE
  5
2D8
330
1F
100
AcDbEntity
  8
_DEFAULT_CAD_LAYER
 62
     7
100
AcDbLine
 10
522.5020141401316
 20
618.3257017953491
 30
0.0
 11
522.5020141401316
 21
616.8257017953491
 31
0.0
  0
LINE
  5
2D9
330
1F
100
AcDbEntity
  8
_DEFAULT_CAD_LAYER
 62
     7
100
AcDbLine
 10
522.5020141401316
 20
616.8257017953491
 30
0.0
 11
519.0020141401316
 21
616.8257017953491
 31
0.0
  0
LINE
  5
2DA
330
1F
100
AcDbEntity
  8
_DEFAULT_CAD_LAYER
 62
     7
100
AcDbLine
 10
519.0020141401316
 20
616.8257017953491
 30
0.0
 11
519.0020141401316
 21
618.3257017953491
 31
0.0
  0
LINE
  5
2DB
330
1F
100
AcDbEntity
  8
_DEFAULT_CAD_LAYER
 62
     7
100
AcDbLine
 10
519.0020141401316
 20
618.3257017953491
 30
0.0
 11
522.5020141401316
 21
618.3257017953491
 31
0.0
  0
INSERT
  5
351
330
1F
100
AcDbEntity
  8
_DEFAULT_CAD_LAYER
  6
Continuous
370
     0
100
AcDbBlockReference
  2
block35
 10
517.2570749296265
 20
599.3502774752341
 30
0.0
 41
-1.0
1001
CHIEFARC-LNWT
1070
     0
  0
SOLID
  5
352
330
1F
100
AcDbEntity
  8
_DEFAULT_CAD_LAYER
 62
     7
100
AcDbTrace
 10
526.4841299153163
 20
608.9226768600269
 30
0.0
 11
526.4841299153163
 21
607.4226768600269
 31
0.0
 12
519.0020141401317
 22
608.9226768600269
 32
0.0
 13
519.0020141401317
 23
607.4226768600269
 33
0.0
  0
LINE
  5
353
330
1F
100
AcDbEntity
  8
_DEFAULT_CAD_LAYER
 62
     7
100
AcDbLine
 10
526.4841299153163
 20
608.9226768600269
 30
0.0
 11
519.0020141401317
 21
607.4226768600269
 31
0.0
  0
LINE
  5
354
330
1F
100
AcDbEntity
  8
_DEFAULT_CAD_LAYER
 62
     7
100
AcDbLine
 10
526.4841299153163
 20
607.4226768600269
 30
0.0
 11
519.0020141401317
 21
608.9226768600269
 31
0.0
  0
LINE
  5
355
330
1F
100
AcDbEntity
  8
_DEFAULT_CAD_LAYER
 62
     7
100
AcDbLine
 10
526.4841299153163
 20
608.9226768600269
 30
0.0
 11
526.4841299153163
 21
607.4226768600269
 31
0.0
  0
LINE
  5
356
330
1F
100
AcDbEntity
  8
_DEFAULT_CAD_LAYER
 62
     7
100
AcDbLine
 10
526.4841299153163
 20
607.4226768600269
 30
0.0
 11
519.0020141401317
 21
607.4226768600269
 31
0.0
  0
LINE
  5
357
330
1F
100
AcDbEntity
  8
_DEFAULT_CAD_LAYER
 62
     7
100
AcDbLine
 10
519.0020141401317
 20
607.4226768600269
 30
0.0
 11
519.0020141401317
 21
608.9226768600269
 31
0.0
  0
LINE
  5
358
330
1F
100
AcDbEntity
  8
_DEFAULT_CAD_LAYER
 62
     7
100
AcDbLine
 10
519.0020141401317
 20
608.9226768600269
 30
0.0
 11
526.4841299153163
 21
608.9226768600269
 31
0.0
  0
LWPOLYLINE
  5
359
330
1F
100
AcDbEntity
  8
_DEFAULT_CAD_LAYER
100
AcDbPolyline
 90
        4
 70
     1
 43
0.0
 10
552.3844825542376
 20
616.1726768600269
 10
552.3844825542376
 20
608.9226768600269
 10
520.5631299533538
 20
608.9226768600269
 10
520.5631299533537
 20
616.1726768600269
  0
SOLID
  5
35A
330
1F
100
AcDbEntity
  8
_DEFAULT_CAD_LAYER
 62
     7
100
AcDbTrace
 10
520.5020141401316
 20
608.922676860027
 30
0.0
 11
519.0020141401316
 21
608.922676860027
 31
0.0
 12
520.5020141401316
 22
616.1726768600267
 32
0.0
 13
519.0020141401316
 23
616.1726768600267
 33
0.0
  0
LINE
  5
35B
330
1F
100
AcDbEntity
  8
_DEFAULT_CAD_LAYER
 62
     7
100
AcDbLine
 10
520.5020141401316
 20
608.922676860027
 30
0.0
 11
519.0020141401316
 21
616.1726768600267
 31
0.0
  0
LINE
  5
35C
330
1F
100
AcDbEntity
  8
_DEFAULT_CAD_LAYER
 62
     7
100
AcDbLine
 10
519.0020141401316
 20
608.922676860027
 30
0.0
 11
520.5020141401316
 21
616.1726768600267
 31
0.0
  0
LINE
  5
35D
330
1F
100
AcDbEntity
  8
_DEFAULT_CAD_LAYER
 62
     7
100
AcDbLine
 10
520.5020141401316
 20
608.922676860027
 30
0.0
 11
519.0020141401316
 21
608.922676860027
 31
0.0
  0
LINE
  5
35E
330
1F
100
AcDbEntity
  8
_DEFAULT_CAD_LAYER
 62
     7
100
AcDbLine
 10
519.0020141401316
 20
608.922676860027
 30
0.0
 11
519.0020141401316
 21
616.1726768600267
 31
0.0
  0
LINE
  5
35F
330
1F
100
AcDbEntity
  8
_DEFAULT_CAD_LAYER
 62
     7
100
AcDbLine
 10
519.0020141401316
 20
616.1726768600267
 30
0.0
 11
520.5020141401316
 21
616.1726768600267
 31
0.0
  0
LINE
  5
360
330
1F
100
AcDbEntity
  8
_DEFAULT_CAD_LAYER
 62
     7
100
AcDbLine
 10
520.5020141401316
 20
616.1726768600267
 30
0.0
 11
520.5020141401316
 21
608.922676860027
 31
0.0
  0
ARC
  5
361
330
1F
100
AcDbEntity
  8
_DEFAULT_CAD_LAYER
100
AcDbCircle
 10
521.7851498563638
 20
614.8895411437946
 30
0.0
 40
1.10230770105052
100
AcDbArc
 50
0.0
 51
180.0
  0
ARC
  5
362
330
1F
100
AcDbEntity
  8
_DEFAULT_CAD_LAYER
100
AcDbCircle
 10
523.4386114079396
 20
610.2226919689925
 30
0.0
 40
1.10230770105052
100
AcDbArc
 50
180.0
 51
0.0
  0
LINE
  5
363
330
1F
100
AcDbEntity
  8
_DEFAULT_CAD_LAYER
100
AcDbLine
 10
522.8874575574142
 20
614.8895411437946
 30
0.0
 11
522.336303706889
 21
610.2226919689925
 31
0.0
  0
ARC
  5
364
330
1F
100
AcDbEntity
  8
_DEFAULT_CAD_LAYER
100
AcDbCircle
 10
525.0920729595152
 20
614.8895411437946
 30
0.0
 40
1.10230770105052
100
AcDbArc
 50
0.0
 51
180.0
  0
LINE
  5
365
330
1F
100
AcDbEntity
  8
_DEFAULT_CAD_LAYER
100
AcDbLine
 10
524.54091910899
 20
610.2226919689925
 30
0.0
 11
523.9897652584648
 21
614.8895411437946
 31
0.0
  0
ARC
  5
366
330
1F
100
AcDbEntity
  8
_DEFAULT_CAD_LAYER
100
AcDbCircle
 10
526.745534511091
 20
610.2226919689925
 30
0.0
 40
1.10230770105052
100
AcDbArc
 50
180.0
 51
0.0
  0
LINE
  5
367
330
1F
100
AcDbEntity
  8
_DEFAULT_CAD_LAYER
100
AcDbLine
 10
526.1943806605658
 20
614.8895411437946
 30
0.0
 11
525.6432268100406
 21
610.2226919689925
 31
0.0
  0
ARC
  5
368
330
1F
100
AcDbEntity
  8
_DEFAULT_CAD_LAYER
100
AcDbCircle
 10
528.3989960626668
 20
614.8895411437946
 30
0.0
 40
1.10230770105052
100
AcDbArc
 50
0.0
 51
180.0
  0
LINE
  5
369
330
1F
100
AcDbEntity
  8
_DEFAULT_CAD_LAYER
100
AcDbLine
 10
527.8478422121416
 20
610.2226919689925
 30
0.0
 11
527.2966883616164
 21
614.8895411437946
 31
0.0
  0
ARC
  5
36A
330
1F
100
AcDbEntity
  8
_DEFAULT_CAD_LAYER
100
AcDbCircle
 10
530.0524576142426
 20
610.2226919689925
 30
0.0
 40
1.10230770105052
100
AcDbArc
 50
180.0
 51
0.0
  0
LINE
  5
36B
330
1F
100
AcDbEntity
  8
_DEFAULT_CAD_LAYER
100
AcDbLine
 10
529.5013037637174
 20
614.8895411437946
 30
0.0
 11
528.9501499131921
 21
610.2226919689925
 31
0.0
  0
ARC
  5
36C
330
1F
100
AcDbEntity
  8
_DEFAULT_CAD_LAYER
100
AcDbCircle
 10
531.7059191658184
 20
614.8895411437946
 30
0.0
 40
1.10230770105052
100
AcDbArc
 50
0.0
 51
180.0
  0
LINE
  5
36D
330
1F
100
AcDbEntity
  8
_DEFAULT_CAD_LAYER
100
AcDbLine
 10
531.1547653152932
 20
610.2226919689925
 30
0.0
 11
530.6036114647679
 21
614.8895411437946
 31
0.0
  0
ARC
  5
36E
330
1F
100
AcDbEntity
  8
_DEFAULT_CAD_LAYER
100
AcDbCircle
 10
533.3593807173942
 20
610.2226919689925
 30
0.0
 40
1.10230770105052
100
AcDbArc
 50
180.0
 51
0.0
  0
LINE
  5
36F
330
1F
100
AcDbEntity
  8
_DEFAULT_CAD_LAYER
100
AcDbLine
 10
532.808226866869
 20
614.8895411437946
 30
0.0
 11
532.2570730163436
 21
610.2226919689925
 31
0.0
  0
INSERT
  5
37F
330
1F
100
AcDbEntity
  8
_DEFAULT_CAD_LAYER
  6
Continuous
370
     0
100
AcDbBlockReference
  2
block34_1
 10
552.7723307293562
 20
605.570188653817
 30
0.0
 41
0.6084419281343898
 42
0.608441928135096
1001
CHIEFARC-LNWT
1070
     0
  0
LINE
  5
380
330
1F
100
AcDbEntity
  8
Text
100
AcDbLine
 10
514.1326849577057
 20
637.5242952974563
 30
0.0
 11
513.269014208597
 21
638.0869433554234
 31
0.0
  0
LINE
  5
381
330
1F
100
AcDbEntity
  8
Text
100
AcDbLine
 10
514.1326849577057
 20
637.5242952974563
 30
0.0
 11
513.6353980887119
 21
638.427182759949
 31
0.0
  0
LWPOLYLINE
  5
382
330
1F
100
AcDbEntity
  8
Text
100
AcDbPolyline
 90
        3
 70
     0
 43
0.0
 10
508.5770345323813
 20
641.3423879944837
 10
510.5870442890915
 20
641.3423879944838
 10
514.1326849577057
 20
637.5242952974563
  0
LINE
  5
383
330
1F
100
AcDbEntity
  8
_DEFAULT_CAD_LAYER
 62
   253
370
     5
100
AcDbLine
 10
516.5297334241852
 20
643.1026515226572
 30
0.0
 11
516.615946506427
 21
643.2053962731475
 31
0.0
1001
CHIEFARC-LNWT
1070
     3
  0
LINE
  5
384
330
1F
100
AcDbEntity
  8
_DEFAULT_CAD_LAYER
 62
   253
370
     5
100
AcDbLine
 10
517.9416959514054
 20
644.7853629370803
 30
0.0
 11
518.0622186282217
 21
644.928996270165
 31
0.0
1001
CHIEFARC-LNWT
1070
     3
  0
LINE
  5
385
330
1F
100
AcDbEntity
  8
_DEFAULT_CAD_LAYER
 62
   253
370
     5
100
AcDbLine
 10
514.702273373109
 20
643.2186432775189
 30
0.0
 11
514.8227960499253
 21
643.3622766106037
 31
0.0
1001
CHIEFARC-LNWT
1070
     3
  0
LINE
  5
386
330
1F
100
AcDbEntity
  8
_DEFAULT_CAD_LAYER
 62
   253
370
     5
100
AcDbLine
 10
516.1485454949037
 20
644.9422432745366
 30
0.0
 11
516.21534314868
 21
645.0218496184013
 31
0.0
1001
CHIEFARC-LNWT
1070
     3
  0
LINE
  5
387
330
1F
100
AcDbEntity
  8
_DEFAULT_CAD_LAYER
 62
   253
370
     5
100
AcDbLine
 10
512.9091229166069
 20
643.3755236149755
 30
0.0
 11
513.0296455934231
 21
643.5191569480603
 31
0.0
1001
CHIEFARC-LNWT
1070
     3
  0
LINE
  5
388
330
1F
100
AcDbEntity
  8
_DEFAULT_CAD_LAYER
 62
   253
370
     5
100
AcDbLine
 10
514.7022736467956
 20
643.2186433774727
 30
0.0
 11
514.8517028515093
 21
643.2055700160606
 31
0.0
1001
CHIEFARC-LNWT
1070
     3
  0
LINE
  5
389
330
1F
100
AcDbEntity
  8
_DEFAULT_CAD_LAYER
 62
   253
370
     5
100
AcDbLine
 10
512.9091231902304
 20
643.3755237144186
 30
0.0
 11
513.0585523949442
 21
643.3624503530065
 31
0.0
1001
CHIEFARC-LNWT
1070
     3
  0
LINE
  5
38A
330
1F
100
AcDbEntity
  8
_DEFAULT_CAD_LAYER
 62
   253
370
     5
100
AcDbLine
 10
517.9416962258935
 20
644.7853630378312
 30
0.0
 11
518.0911254306072
 21
644.7722896764191
 31
0.0
1001
CHIEFARC-LNWT
1070
     3
  0
LINE
  5
38B
330
1F
100
AcDbEntity
  8
_DEFAULT_CAD_LAYER
 62
   253
370
     5
100
AcDbLine
 10
516.1485457693283
 20
644.942243374777
 30
0.0
 11
516.2979749740421
 21
644.9291700133648
 31
0.0
1001
CHIEFARC-LNWT
1070
     3
  0
LINE
  5
38C
330
1F
100
AcDbEntity
  8
_DEFAULT_CAD_LAYER
 62
   253
370
     5
100
AcDbLine
 10
513.0590497170558
 20
643.3620452044552
 30
0.0
 11
513.0301433124289
 21
643.5187519166734
 31
0.0
1001
CHIEFARC-LNWT
1070
     3
  0
LINE
  5
38D
330
1F
100
AcDbEntity
  8
_DEFAULT_CAD_LAYER
 62
   253
370
     5
100
AcDbLine
 10
514.8522000368407
 20
643.2051634589002
 30
0.0
 11
514.8232936322138
 21
643.3618701711185
 31
0.0
1001
CHIEFARC-LNWT
1070
     3
  0
LINE
  5
38E
330
1F
100
AcDbEntity
  8
_DEFAULT_CAD_LAYER
 62
   253
370
     5
100
AcDbLine
 10
516.6303873736163
 20
643.1293986804202
 30
0.0
 11
516.6164439519987
 21
643.2049884255637
 31
0.0
1001
CHIEFARC-LNWT
1070
     3
  0
LINE
  5
38F
330
1F
100
AcDbEntity
  8
_DEFAULT_CAD_LAYER
 62
   253
370
     5
100
AcDbLine
 10
516.2984734911258
 20
644.9287623140526
 30
0.0
 11
516.2781958552999
 21
645.0386909503823
 31
0.0
1001
CHIEFARC-LNWT
1070
     3
  0
LINE
  5
390
330
1F
100
AcDbEntity
  8
_DEFAULT_CAD_LAYER
 62
   253
370
     5
100
AcDbLine
 10
518.0916238109107
 20
644.7718805684979
 30
0.0
 11
518.0627174062838
 21
644.9285872807161
 31
0.0
1001
CHIEFARC-LNWT
1070
     3
  0
LINE
  5
391
330
1F
100
AcDbEntity
  8
_DEFAULT_CAD_LAYER
 62
   253
370
     5
100
AcDbLine
 10
517.1462229888747
 20
644.8971126396779
 30
0.0
 11
517.3409442274527
 21
645.100054014825
 31
0.0
1001
CHIEFARC-LNWT
1070
     3
  0
LINE
  5
392
330
1F
100
AcDbEntity
  8
_DEFAULT_CAD_LAYER
 62
   253
370
     5
100
AcDbLine
 10
517.3690694773477
 20
644.8622118198667
 30
0.0
 11
517.3414490161816
 21
645.0996363446036
 31
0.0
1001
CHIEFARC-LNWT
1070
     3
  0
LINE
  5
393
330
1F
100
AcDbEntity
  8
_DEFAULT_CAD_LAYER
 62
   253
370
     5
100
AcDbLine
 10
517.1462229576009
 20
644.8971127562752
 30
0.0
 11
517.3685648427432
 21
644.862629628353
 31
0.0
1001
CHIEFARC-LNWT
1070
     3
  0
LINE
  5
394
330
1F
100
AcDbEntity
  8
_DEFAULT_CAD_LAYER
 62
   253
370
     5
100
AcDbLine
 10
514.177930286807
 20
643.0372274012976
 30
0.0
 11
514.3529766167753
 21
643.1044213918374
 31
0.0
1001
CHIEFARC-LNWT
1070
     3
  0
LINE
  5
395
330
1F
100
AcDbEntity
  8
_DEFAULT_CAD_LAYER
 62
   253
370
     5
100
AcDbLine
 10
516.2784862464257
 20
643.8435552877745
 30
0.0
 11
516.453532576394
 21
643.9107492783143
 31
0.0
1001
CHIEFARC-LNWT
1070
     3
  0
LINE
  5
396
330
1F
100
AcDbEntity
  8
_DEFAULT_CAD_LAYER
 62
   253
370
     5
100
AcDbLine
 10
512.685662656511
 20
644.043774627961
 30
0.0
 11
512.8607089864792
 21
644.1109686185008
 31
0.0
1001
CHIEFARC-LNWT
1070
     3
  0
LINE
  5
397
330
1F
100
AcDbEntity
  8
_DEFAULT_CAD_LAYER
 62
   253
370
     5
100
AcDbLine
 10
514.1779305504097
 20
643.0372272363069
 30
0.0
 11
514.3022861862929
 21
642.9533483007863
 31
0.0
1001
CHIEFARC-LNWT
1070
     3
  0
LINE
  5
398
330
1F
100
AcDbEntity
  8
_DEFAULT_CAD_LAYER
 62
   253
370
     5
100
AcDbLine
 10
512.6856629198106
 20
644.0437744625541
 30
0.0
 11
512.8100185556939
 21
643.9598955270335
 31
0.0
1001
CHIEFARC-LNWT
1070
     3
  0
LINE
  5
399
330
1F
100
AcDbEntity
  8
_DEFAULT_CAD_LAYER
 62
   253
370
     5
100
AcDbLine
 10
516.2784865108126
 20
643.8435551226765
 30
0.0
 11
516.4028421466959
 21
643.759676187156
 31
0.0
1001
CHIEFARC-LNWT
1070
     3
  0
LINE
  5
39A
330
1F
100
AcDbEntity
  8
_DEFAULT_CAD_LAYER
 62
   253
370
     5
100
AcDbLine
 10
516.4033409376182
 20
643.7592713414716
 30
0.0
 11
516.4540317481095
 21
643.9103442232686
 31
0.0
1001
CHIEFARC-LNWT
1070
     3
  0
LINE
  5
39B
330
1F
100
AcDbEntity
  8
_DEFAULT_CAD_LAYER
 62
   253
370
     5
100
AcDbLine
 10
514.3027843661644
 20
642.9529450996968
 30
0.0
 11
514.3534751766558
 21
643.1040179814938
 31
0.0
1001
CHIEFARC-LNWT
1070
     3
  0
LINE
  5
39C
330
1F
100
AcDbEntity
  8
_DEFAULT_CAD_LAYER
 62
   253
370
     5
100
AcDbLine
 10
512.8105175381032
 20
643.9594934916289
 30
0.0
 11
512.8612083485946
 21
644.110566373426
 31
0.0
1001
CHIEFARC-LNWT
1070
     3
  0
LINE
  5
39D
330
1F
100
AcDbEntity
  8
_DEFAULT_CAD_LAYER
 62
   253
370
     5
100
AcDbLine
 10
517.0190191574991
 20
643.4396390637436
 30
0.0
 11
517.0190191574991
 21
643.4396390637436
 31
0.0
1001
CHIEFARC-LNWT
1070
     3
  0
LINE
  5
39E
330
1F
100
AcDbEntity
  8
_DEFAULT_CAD_LAYER
 62
   253
370
     5
100
AcDbLine
 10
517.5965110960947
 20
643.8827642135683
 30
0.0
 11
517.5965110960947
 21
643.8827642135683
 31
0.0
1001
CHIEFARC-LNWT
1070
     3
  0
LINE
  5
39F
330
1F
100
AcDbEntity
  8
_DEFAULT_CAD_LAYER
 62
   253
370
     5
100
AcDbLine
 10
518.1899460636699
 20
644.3381228797992
 30
0.0
 11
518.1899460636699
 21
644.3381228797992
 31
0.0
1001
CHIEFARC-LNWT
1070
     3
  0
LINE
  5
3A0
330
1F
100
AcDbEntity
  8
_DEFAULT_CAD_LAYER
 62
   253
370
     5
100
AcDbLine
 10
514.9937205695273
 20
642.6944809701682
 30
0.0
 11
514.9937205695273
 21
642.6944809701682
 31
0.0
1001
CHIEFARC-LNWT
1070
     3
  0
LINE
  5
3A1
330
1F
100
AcDbEntity
  8
_DEFAULT_CAD_LAYER
 62
   253
370
     5
100
AcDbLine
 10
515.3595245068781
 20
642.9751722036065
 30
0.0
 11
515.3595245068781
 21
642.9751722036065
 31
0.0
1001
CHIEFARC-LNWT
1070
     3
  0
LINE
  5
3A2
330
1F
100
AcDbEntity
  8
_DEFAULT_CAD_LAYER
 62
   253
370
     5
100
AcDbLine
 10
515.7354273259349
 20
643.2636125815261
 30
0.0
 11
515.7354273259349
 21
643.2636125815261
 31
0.0
1001
CHIEFARC-LNWT
1070
     3
  0
LINE
  5
3A3
330
1F
100
AcDbEntity
  8
_DEFAULT_CAD_LAYER
 62
   253
370
     5
100
AcDbLine
 10
517.0494187957922
 20
644.2718736983219
 30
0.0
 11
517.0494187957922
 21
644.2718736983219
 31
0.0
1001
CHIEFARC-LNWT
1070
     3
  0
LINE
  5
3A4
330
1F
100
AcDbEntity
  8
_DEFAULT_CAD_LAYER
 62
   253
370
     5
100
AcDbLine
 10
517.6119178719316
 20
644.7034944201569
 30
0.0
 11
517.6119178719316
 21
644.7034944201569
 31
0.0
1001
CHIEFARC-LNWT
1070
     3
  0
LINE
  5
3A5
330
1F
100
AcDbEntity
  8
_DEFAULT_CAD_LAYER
 62
   253
370
     5
100
AcDbLine
 10
518.1899460636699
 20
645.1470310514903
 30
0.0
 11
518.1899460636699
 21
645.1470310514903
 31
0.0
1001
CHIEFARC-LNWT
1070
     3
  0
LINE
  5
3A6
330
1F
100
AcDbEntity
  8
_DEFAULT_CAD_LAYER
 62
   253
370
     5
100
AcDbLine
 10
513.3810427823568
 20
642.2659379528492
 30
0.0
 11
513.3810427823568
 21
642.2659379528492
 31
0.0
1001
CHIEFARC-LNWT
1070
     3
  0
LINE
  5
3A7
330
1F
100
AcDbEntity
  8
_DEFAULT_CAD_LAYER
 62
   253
370
     5
100
AcDbLine
 10
514.5571995800725
 20
643.1684348058313
 30
0.0
 11
514.5571995800725
 21
643.1684348058313
 31
0.0
1001
CHIEFARC-LNWT
1070
     3
  0
LINE
  5
3A8
330
1F
100
AcDbEntity
  8
_DEFAULT_CAD_LAYER
 62
   253
370
     5
100
AcDbLine
 10
515.7658269642282
 20
644.0958472161044
 30
0.0
 11
515.7658269642282
 21
644.0958472161044
 31
0.0
1001
CHIEFARC-LNWT
1070
     3
  0
LINE
  5
3A9
330
1F
100
AcDbEntity
  8
_DEFAULT_CAD_LAYER
 62
   253
370
     5
100
AcDbLine
 10
517.0798184340855
 20
645.1041083329001
 30
0.0
 11
517.0798184340855
 21
645.1041083329001
 31
0.0
1001
CHIEFARC-LNWT
1070
     3
  0
LINE
  5
3AA
330
1F
100
AcDbEntity
  8
_DEFAULT_CAD_LAYER
 62
   253
370
     5
100
AcDbLine
 10
517.2273448834954
 20
645.217309358973
 30
0.0
 11
517.2273448834954
 21
645.217309358973
 31
0.0
1001
CHIEFARC-LNWT
1070
     3
  0
LINE
  5
3AB
330
1F
100
AcDbEntity
  8
_DEFAULT_CAD_LAYER
 62
   253
370
     5
100
AcDbLine
 10
517.3789441489934
 20
645.3336355667474
 30
0.0
 11
517.3789441489934
 21
645.3336355667474
 31
0.0
1001
CHIEFARC-LNWT
1070
     3
  0
LINE
  5
3AC
330
1F
100
AcDbEntity
  8
_DEFAULT_CAD_LAYER
 62
   253
370
     5
100
AcDbLine
 10
513.174193812859
 20
642.9161253278089
 30
0.0
 11
513.174193812859
 21
642.9161253278089
 31
0.0
1001
CHIEFARC-LNWT
1070
     3
  0
LINE
  5
3AD
330
1F
100
AcDbEntity
  8
_DEFAULT_CAD_LAYER
 62
   253
370
     5
100
AcDbLine
 10
514.4490551631302
 20
643.8943608478033
 30
0.0
 11
514.4490551631302
 21
643.8943608478033
 31
0.0
1001
CHIEFARC-LNWT
1070
     3
  0
LINE
  5
3AE
330
1F
100
AcDbEntity
  8
_DEFAULT_CAD_LAYER
 62
   253
370
     5
100
AcDbLine
 10
515.7591120721512
 20
644.8996028698834
 30
0.0
 11
515.7591120721512
 21
644.8996028698834
 31
0.0
1001
CHIEFARC-LNWT
1070
     3
  0
LINE
  5
3AF
330
1F
100
AcDbEntity
  8
_DEFAULT_CAD_LAYER
 62
   253
370
     5
100
AcDbLine
 10
513.2045934511522
 20
643.7483599623872
 30
0.0
 11
513.2045934511522
 21
643.7483599623872
 31
0.0
1001
CHIEFARC-LNWT
1070
     3
  0
LINE
  5
3B0
330
1F
100
AcDbEntity
  8
_DEFAULT_CAD_LAYER
 62
   253
370
     5
100
AcDbLine
 10
513.6655735016743
 20
644.1020823960728
 30
0.0
 11
513.6655735016743
 21
644.1020823960728
 31
0.0
1001
CHIEFARC-LNWT
1070
     3
  0
LINE
  5
3B1
330
1F
100
AcDbEntity
  8
_DEFAULT_CAD_LAYER
 62
   253
370
     5
100
AcDbLine
 10
514.139279995309
 20
644.4655701730195
 30
0.0
 11
514.139279995309
 21
644.4655701730195
 31
0.0
1001
CHIEFARC-LNWT
1070
     3
  0
LINE
  5
3B2
330
1F
100
AcDbEntity
  8
_DEFAULT_CAD_LAYER
 62
   253
370
     5
100
AcDbLine
 10
512.6664831707142
 20
642.23909844548
 30
0.0
 11
512.6664831707142
 21
642.23909844548
 31
0.0
1001
CHIEFARC-LNWT
1070
     3
  0
LINE
  5
3B3
330
1F
100
AcDbEntity
  8
_DEFAULT_CAD_LAYER
 62
   253
370
     5
100
AcDbLine
 10
513.1223347412224
 20
642.2991124432665
 30
0.0
 11
513.1223347412224
 21
642.2991124432665
 31
0.0
1001
CHIEFARC-LNWT
1070
     3
  0
LINE
  5
3B4
330
1F
100
AcDbEntity
  8
_DEFAULT_CAD_LAYER
 62
   253
370
     5
100
AcDbLine
 10
513.8824851349756
 20
642.3991881411462
 30
0.0
 11
513.8824851349756
 21
642.3991881411462
 31
0.0
1001
CHIEFARC-LNWT
1070
     3
  0
LINE
  5
3B5
330
1F
100
AcDbEntity
  8
_DEFAULT_CAD_LAYER
 62
   253
370
     5
100
AcDbLine
 10
512.6664831707142
 20
643.1385433210776
 30
0.0
 11
512.6664831707142
 21
643.1385433210776
 31
0.0
1001
CHIEFARC-LNWT
1070
     3
  0
LINE
  5
3B6
330
1F
100
AcDbEntity
  8
_DEFAULT_CAD_LAYER
 62
   253
370
     5
100
AcDbLine
 10
513.4783129298929
 20
643.2454227364892
 30
0.0
 11
513.4783129298929
 21
643.2454227364892
 31
0.0
1001
CHIEFARC-LNWT
1070
     3
  0
LINE
  5
3B7
330
1F
100
AcDbEntity
  8
_DEFAULT_CAD_LAYER
 62
   253
370
     5
100
AcDbLine
 10
514.8320709314554
 20
643.4236483585239
 30
0.0
 11
514.8320709314554
 21
643.4236483585239
 31
0.0
1001
CHIEFARC-LNWT
1070
     3
  0
LINE
  5
3B8
330
1F
100
AcDbEntity
  8
_DEFAULT_CAD_LAYER
 62
   253
370
     5
100
AcDbLine
 10
515.4579205001976
 20
643.5060430173628
 30
0.0
 11
515.4579205001976
 21
643.5060430173628
 31
0.0
1001
CHIEFARC-LNWT
1070
     3
  0
LINE
  5
3B9
330
1F
100
AcDbEntity
  8
_DEFAULT_CAD_LAYER
 62
   253
370
     5
100
AcDbLine
 10
516.4047503428096
 20
643.6306955309329
 30
0.0
 11
516.4047503428096
 21
643.6306955309329
 31
0.0
1001
CHIEFARC-LNWT
1070
     3
  0
LINE
  5
3BA
330
1F
100
AcDbEntity
  8
_DEFAULT_CAD_LAYER
 62
   253
370
     5
100
AcDbLine
 10
517.9836262845474
 20
643.8385584920434
 30
0.0
 11
517.9836262845474
 21
643.8385584920434
 31
0.0
1001
CHIEFARC-LNWT
1070
     3
  0
LINE
  5
3BB
330
1F
100
AcDbEntity
  8
_DEFAULT_CAD_LAYER
 62
   253
370
     5
100
AcDbLine
 10
512.964038990711
 20
644.0771621635492
 30
0.0
 11
512.964038990711
 21
644.0771621635492
 31
0.0
1001
CHIEFARC-LNWT
1070
     3
  0
LINE
  5
3BC
330
1F
100
AcDbEntity
  8
_DEFAULT_CAD_LAYER
 62
   253
370
     5
100
AcDbLine
 10
513.910868833323
 20
644.2018146771194
 30
0.0
 11
513.910868833323
 21
644.2018146771194
 31
0.0
1001
CHIEFARC-LNWT
1070
     3
  0
LINE
  5
3BD
330
1F
100
AcDbEntity
  8
_DEFAULT_CAD_LAYER
 62
   253
370
     5
100
AcDbLine
 10
515.4897447750608
 20
644.4096776382298
 30
0.0
 11
515.4897447750608
 21
644.4096776382298
 31
0.0
1001
CHIEFARC-LNWT
1070
     3
  0
LINE
  5
3BE
330
1F
100
AcDbEntity
  8
_DEFAULT_CAD_LAYER
 62
   253
370
     5
100
AcDbLine
 10
516.115594343803
 20
644.4920722970687
 30
0.0
 11
516.115594343803
 21
644.4920722970687
 31
0.0
1001
CHIEFARC-LNWT
1070
     3
  0
LINE
  5
3BF
330
1F
100
AcDbEntity
  8
_DEFAULT_CAD_LAYER
 62
   253
370
     5
100
AcDbLine
 10
516.8932217795136
 20
644.5944488911725
 30
0.0
 11
516.8932217795136
 21
644.5944488911725
 31
0.0
1001
CHIEFARC-LNWT
1070
     3
  0
LINE
  5
3C0
330
1F
100
AcDbEntity
  8
_DEFAULT_CAD_LAYER
 62
   253
370
     5
100
AcDbLine
 10
518.1899460636699
 20
644.7651658818639
 30
0.0
 11
518.1899460636699
 21
644.7651658818639
 31
0.0
1001
CHIEFARC-LNWT
1070
     3
  0
LINE
  5
3C1
330
1F
100
AcDbEntity
  8
_DEFAULT_CAD_LAYER
 62
   253
370
     5
100
AcDbLine
 10
512.6664831707142
 20
642.2930390597775
 30
0.0
 11
512.6664831707142
 21
642.2930390597775
 31
0.0
1001
CHIEFARC-LNWT
1070
     3
  0
LINE
  5
3C2
330
1F
100
AcDbEntity
  8
_DEFAULT_CAD_LAYER
 62
   253
370
     5
100
AcDbLine
 10
512.7248191507852
 20
642.2558749417392
 30
0.0
 11
512.7248191507852
 21
642.2558749417392
 31
0.0
1001
CHIEFARC-LNWT
1070
     3
  0
LINE
  5
3C3
330
1F
100
AcDbEntity
  8
_DEFAULT_CAD_LAYER
 62
   253
370
     5
100
AcDbLine
 10
512.9068274086064
 20
642.1399228934599
 30
0.0
 11
512.9068274086064
 21
642.1399228934599
 31
0.0
1001
CHIEFARC-LNWT
1070
     3
  0
LINE
  5
3C4
330
1F
100
AcDbEntity
  8
_DEFAULT_CAD_LAYER
 62
   253
370
     5
100
AcDbLine
 10
514.1770547844186
 20
642.9183364423808
 30
0.0
 11
514.1770547844186
 21
642.9183364423808
 31
0.0
1001
CHIEFARC-LNWT
1070
     3
  0
LINE
  5
3C5
330
1F
100
AcDbEntity
  8
_DEFAULT_CAD_LAYER
 62
   253
370
     5
100
AcDbLine
 10
514.2955827932374
 20
642.8428257728896
 30
0.0
 11
514.2955827932374
 21
642.8428257728896
 31
0.0
1001
CHIEFARC-LNWT
1070
     3
  0
LINE
  5
3C6
330
1F
100
AcDbEntity
  8
_DEFAULT_CAD_LAYER
 62
   253
370
     5
100
AcDbLine
 10
514.665390180752
 20
642.6072324840771
 30
0.0
 11
514.665390180752
 21
642.6072324840771
 31
0.0
1001
CHIEFARC-LNWT
1070
     3
  0
LINE
  5
3C7
330
1F
100
AcDbEntity
  8
_DEFAULT_CAD_LAYER
 62
   253
370
     5
100
AcDbLine
 10
513.561942869564
 20
644.1040247676602
 30
0.0
 11
513.561942869564
 21
644.1040247676602
 31
0.0
1001
CHIEFARC-LNWT
1070
     3
  0
LINE
  5
3C8
330
1F
100
AcDbEntity
  8
_DEFAULT_CAD_LAYER
 62
   253
370
     5
100
AcDbLine
 10
514.0431876989961
 20
643.7974379986616
 30
0.0
 11
514.0431876989961
 21
643.7974379986616
 31
0.0
1001
CHIEFARC-LNWT
1070
     3
  0
LINE
  5
3C9
330
1F
100
AcDbEntity
  8
_DEFAULT_CAD_LAYER
 62
   253
370
     5
100
AcDbLine
 10
515.5446715668247
 20
642.8408872793858
 30
0.0
 11
515.5446715668247
 21
642.8408872793858
 31
0.0
1001
CHIEFARC-LNWT
1070
     3
  0
LINE
  5
3CA
330
1F
100
AcDbEntity
  8
_DEFAULT_CAD_LAYER
 62
   253
370
     5
100
AcDbLine
 10
514.210515037158
 20
644.4846575449558
 30
0.0
 11
514.210515037158
 21
644.4846575449558
 31
0.0
1001
CHIEFARC-LNWT
1070
     3
  0
LINE
  5
3CB
330
1F
100
AcDbEntity
  8
_DEFAULT_CAD_LAYER
 62
   253
370
     5
100
AcDbLine
 10
514.4309152533035
 20
644.3442471217738
 30
0.0
 11
514.4309152533035
 21
644.3442471217738
 31
0.0
1001
CHIEFARC-LNWT
1070
     3
  0
LINE
  5
3CC
330
1F
100
AcDbEntity
  8
_DEFAULT_CAD_LAYER
 62
   253
370
     5
100
AcDbLine
 10
515.1185639276778
 20
643.9061666014463
 30
0.0
 11
515.1185639276778
 21
643.9061666014463
 31
0.0
1001
CHIEFARC-LNWT
1070
     3
  0
LINE
  5
3CD
330
1F
100
AcDbEntity
  8
_DEFAULT_CAD_LAYER
 62
   253
370
     5
100
AcDbLine
 10
516.6857273788639
 20
643.7015921901285
 30
0.0
 11
516.6857273788639
 21
643.7015921901285
 31
0.0
1001
CHIEFARC-LNWT
1070
     3
  0
LINE
  5
3CE
330
1F
100
AcDbEntity
  8
_DEFAULT_CAD_LAYER
 62
   253
370
     5
100
AcDbLine
 10
516.8356077089868
 20
643.6061078891272
 30
0.0
 11
516.8356077089868
 21
643.6061078891272
 31
0.0
1001
CHIEFARC-LNWT
1070
     3
  0
LINE
  5
3CF
330
1F
100
AcDbEntity
  8
_DEFAULT_CAD_LAYER
 62
   253
370
     5
100
AcDbLine
 10
517.3032343389702
 20
643.3081968700031
 30
0.0
 11
517.3032343389702
 21
643.3081968700031
 31
0.0
1001
CHIEFARC-LNWT
1070
     3
  0
LINE
  5
3D0
330
1F
100
AcDbEntity
  8
_DEFAULT_CAD_LAYER
 62
   253
370
     5
100
AcDbLine
 10
516.0706154640092
 20
644.8872805154078
 30
0.0
 11
516.0706154640092
 21
644.8872805154078
 31
0.0
1001
CHIEFARC-LNWT
1070
     3
  0
LINE
  5
3D1
330
1F
100
AcDbEntity
  8
_DEFAULT_CAD_LAYER
 62
   253
370
     5
100
AcDbLine
 10
516.5832126147455
 20
644.560720114899
 30
0.0
 11
516.5832126147455
 21
644.560720114899
 31
0.0
1001
CHIEFARC-LNWT
1070
     3
  0
LINE
  5
3D2
330
1F
100
AcDbEntity
  8
_DEFAULT_CAD_LAYER
 62
   253
370
     5
100
AcDbLine
 10
518.1825157250429
 20
643.5418516653117
 30
0.0
 11
518.1825157250429
 21
643.5418516653117
 31
0.0
1001
CHIEFARC-LNWT
1070
     3
  0
LINE
  5
3D3
330
1F
100
AcDbEntity
  8
_DEFAULT_CAD_LAYER
 62
   253
370
     5
100
AcDbLine
 10
516.8419020678449
 20
645.1897355748021
 30
0.0
 11
516.8419020678449
 21
645.1897355748021
 31
0.0
1001
CHIEFARC-LNWT
1070
     3
  0
LINE
  5
3D4
330
1F
100
AcDbEntity
  8
_DEFAULT_CAD_LAYER
 62
   253
370
     5
100
AcDbLine
 10
517.0325172266502
 20
645.0683003258681
 30
0.0
 11
517.0325172266502
 21
645.0683003258681
 31
0.0
1001
CHIEFARC-LNWT
1070
     3
  0
LINE
  5
3D5
330
1F
100
AcDbEntity
  8
_DEFAULT_CAD_LAYER
 62
   253
370
     5
100
AcDbLine
 10
517.6272365221226
 20
644.6894223491943
 30
0.0
 11
517.6272365221226
 21
644.6894223491943
 31
0.0
1001
CHIEFARC-LNWT
1070
     3
  0
LINE
  5
3D6
330
1F
100
AcDbEntity
  8
_DEFAULT_CAD_LAYER
 62
   253
370
     5
100
AcDbLine
 10
512.6664831707142
 20
643.0294021455228
 30
0.0
 11
512.6664831707142
 21
643.0294021455228
 31
0.0
1001
CHIEFARC-LNWT
1070
     3
  0
LINE
  5
3D7
330
1F
100
AcDbEntity
  8
_DEFAULT_CAD_LAYER
 62
   253
370
     5
100
AcDbLine
 10
512.9774151313712
 20
642.7444854969744
 30
0.0
 11
512.9774151313712
 21
642.7444854969744
 31
0.0
1001
CHIEFARC-LNWT
1070
     3
  0
LINE
  5
3D8
330
1F
100
AcDbEntity
  8
_DEFAULT_CAD_LAYER
 62
   253
370
     5
100
AcDbLine
 10
513.4729928409722
 20
642.2903721925188
 30
0.0
 11
513.4729928409722
 21
642.2903721925188
 31
0.0
1001
CHIEFARC-LNWT
1070
     3
  0
LINE
  5
3D9
330
1F
100
AcDbEntity
  8
_DEFAULT_CAD_LAYER
 62
   253
370
     5
100
AcDbLine
 10
513.126431956147
 20
644.1941783588705
 30
0.0
 11
513.126431956147
 21
644.1941783588705
 31
0.0
1001
CHIEFARC-LNWT
1070
     3
  0
LINE
  5
3DA
330
1F
100
AcDbEntity
  8
_DEFAULT_CAD_LAYER
 62
   253
370
     5
100
AcDbLine
 10
513.5554618747061
 20
643.8010448699087
 30
0.0
 11
513.5554618747061
 21
643.8010448699087
 31
0.0
1001
CHIEFARC-LNWT
1070
     3
  0
LINE
  5
3DB
330
1F
100
AcDbEntity
  8
_DEFAULT_CAD_LAYER
 62
   253
370
     5
100
AcDbLine
 10
514.2392695602864
 20
643.1744505705788
 30
0.0
 11
514.2392695602864
 21
643.1744505705788
 31
0.0
1001
CHIEFARC-LNWT
1070
     3
  0
LINE
  5
3DC
330
1F
100
AcDbEntity
  8
_DEFAULT_CAD_LAYER
 62
   253
370
     5
100
AcDbLine
 10
515.716256738932
 20
643.4072827990531
 30
0.0
 11
515.716256738932
 21
643.4072827990531
 31
0.0
1001
CHIEFARC-LNWT
1070
     3
  0
LINE
  5
3DD
330
1F
100
AcDbEntity
  8
_DEFAULT_CAD_LAYER
 62
   253
370
     5
100
AcDbLine
 10
515.8861143543152
 20
643.2516369709332
 30
0.0
 11
515.8861143543152
 21
643.2516369709332
 31
0.0
1001
CHIEFARC-LNWT
1070
     3
  0
LINE
  5
3DE
330
1F
100
AcDbEntity
  8
_DEFAULT_CAD_LAYER
 62
   253
370
     5
100
AcDbLine
 10
516.1568412612951
 20
643.0035614664222
 30
0.0
 11
516.1568412612951
 21
643.0035614664222
 31
0.0
1001
CHIEFARC-LNWT
1070
     3
  0
LINE
  5
3DF
330
1F
100
AcDbEntity
  8
_DEFAULT_CAD_LAYER
 62
   253
370
     5
100
AcDbLine
 10
515.8384968111891
 20
644.8815120340211
 30
0.0
 11
515.8384968111891
 21
644.8815120340211
 31
0.0
1001
CHIEFARC-LNWT
1070
     3
  0
LINE
  5
3E0
330
1F
100
AcDbEntity
  8
_DEFAULT_CAD_LAYER
 62
   253
370
     5
100
AcDbLine
 10
516.4375346473473
 20
644.3325949903334
 30
0.0
 11
516.4375346473473
 21
644.3325949903334
 31
0.0
1001
CHIEFARC-LNWT
1070
     3
  0
LINE
  5
3E1
330
1F
100
AcDbEntity
  8
_DEFAULT_CAD_LAYER
 62
   253
370
     5
100
AcDbLine
 10
517.3923087985164
 20
643.4577056714711
 30
0.0
 11
517.3923087985164
 21
643.4577056714711
 31
0.0
1001
CHIEFARC-LNWT
1070
     3
  0
LINE
  5
3E2
330
1F
100
AcDbEntity
  8
_DEFAULT_CAD_LAYER
 62
   253
370
     5
100
AcDbLine
 10
517.144673756393
 20
645.2708630042396
 30
0.0
 11
517.144673756393
 21
645.2708630042396
 31
0.0
1001
CHIEFARC-LNWT
1070
     3
  0
LINE
  5
3E3
330
1F
100
AcDbEntity
  8
_DEFAULT_CAD_LAYER
 62
   253
370
     5
100
AcDbLine
 10
517.2872709238588
 20
645.1401967743641
 30
0.0
 11
517.2872709238588
 21
645.1401967743641
 31
0.0
1001
CHIEFARC-LNWT
1070
     3
  0
LINE
  5
3E4
330
1F
100
AcDbEntity
  8
_DEFAULT_CAD_LAYER
 62
   253
370
     5
100
AcDbLine
 10
517.5145488707736
 20
644.9319349064393
 30
0.0
 11
517.5145488707736
 21
644.9319349064393
 31
0.0
1001
CHIEFARC-LNWT
1070
     3
  0
LWPOLYLINE
  5
3E5
330
1F
100
AcDbEntity
  8
_DEFAULT_CAD_LAYER
 62
     7
370
    18
100
AcDbPolyline
 90
        4
 70
     1
 43
0.0
 10
512.6664831707142
 20
642.0760553027229
 10
512.6664831707142
 20
644.0709354532542
 10
518.1899460636698
 20
645.5509428748451
 10
518.1899460636699
 20
643.543826157526
  0
LINE
  5
3E6
330
1F
100
AcDbEntity
  8
Text
100
AcDbLine
 10
517.4889007293192
 20
650.6437646456334
 30
0.0
 11
516.4792945687193
 21
650.8515996775186
 31
0.0
  0
LINE
  5
3E7
330
1F
100
AcDbEntity
  8
Text
100
AcDbLine
 10
517.4889007293192
 20
650.6437646456334
 30
0.0
 11
516.6958764849712
 21
651.3022572787556
 31
0.0
  0
LWPOLYLINE
  5
3E8
330
1F
100
AcDbEntity
  8
Text
100
AcDbPolyline
 90
        3
 70
     0
 43
0.0
 10
501.3390176726019
 20
654.1560082646023
 10
510.1807223196141
 20
654.1560082646023
 10
517.4889007293192
 20
650.6437646456334
  0
LINE
  5
3E9
330
1F
100
AcDbEntity
  8
Text
100
AcDbLine
 10
517.9393339479435
 20
645.8545017220985
 30
0.0
 11
516.9608757310704
 21
646.1787231245896
 31
0.0
  0
LINE
  5
3EA
330
1F
100
AcDbEntity
  8
Text
100
AcDbLine
 10
517.9393339479435
 20
645.8545017220985
 30
0.0
 11
517.22856324011
 21
646.6010303557662
 31
0.0
  0
LWPOLYLINE
  5
3EB
330
1F
100
AcDbEntity
  8
Text
100
AcDbPolyline
 90
        3
 70
     0
 43
0.0
 10
503.4538293737047
 20
650.1560082646021
 10
511.1532223196142
 20
650.1560082646021
 10
517.9393339479435
 20
645.8545017220985
  0
LINE
  5
3EC
330
1F
100
AcDbEntity
  8
Text
100
AcDbLine
 10
513.0091062016143
 20
643.2357249875432
 30
0.0
 11
511.9831927105101
 21
643.3357325311109
 31
0.0
  0
LINE
  5
3ED
330
1F
100
AcDbEntity
  8
Text
100
AcDbLine
 10
513.0091062016143
 20
643.2357249875432
 30
0.0
 11
512.1509507887895
 21
643.8067497570931
 31
0.0
  0
LWPOLYLINE
  5
3EE
330
1F
100
AcDbEntity
  8
Text
100
AcDbPolyline
 90
        3
 70
     0
 43
0.0
 10
496.5801250332574
 20
646.1560082646022
 10
504.8097768915134
 20
646.1560082646022
 10
513.0091062016143
 20
643.2357249875432
  0
LINE
  5
3EF
330
1F
100
AcDbEntity
  8
Text
100
AcDbLine
 10
518.1700766560956
 20
614.9768125882322
 30
0.0
 11
517.2861931796124
 21
615.5071426741221
 31
0.0
  0
LINE
  5
3F0
330
1F
100
AcDbEntity
  8
Text
100
AcDbLine
 10
518.1700766560956
 20
614.9768125882322
 30
0.0
 11
517.6397465702057
 21
615.8606960647154
 31
0.0
  0
LWPOLYLINE
  5
3F1
330
1F
100
AcDbEntity
  8
Text
100
AcDbPolyline
 90
        3
 70
     0
 43
0.0
 10
506.9370135239416
 20
623.1013266210259
 10
510.0455626233019
 20
623.1013266210259
 10
518.1700766560956
 20
614.9768125882322
  0
LINE
  5
3F2
330
1F
100
AcDbEntity
  8
Text
100
AcDbLine
 10
518.4368629825898
 20
654.1711527217689
 30
0.0
 11
517.4303745403133
 21
654.3935960079428
 31
0.0
  0
LINE
  5
3F3
330
1F
100
AcDbEntity
  8
Text
100
AcDbLine
 10
518.4368629825898
 20
654.1711527217689
 30
0.0
 11
517.6534641387807
 21
654.8410678294644
 31
0.0
  0
LWPOLYLINE
  5
3F4
330
1F
100
AcDbEntity
  8
Text
100
AcDbPolyline
 90
        3
 70
     0
 43
0.0
 10
505.8140176726019
 20
658.1560082646023
 10
510.4440628677432
 20
658.1560082646022
 10
518.4368629825898
 20
654.1711527217689
  0
LINE
  5
3F5
330
1F
100
AcDbEntity
  8
_DEFAULT_CAD_LAYER
 62
    16
370
    13
100
AcDbLine
 10
518.2835270286539
 20
656.4303218173384
 30
0.0
 11
518.2835270286539
 21
605.8534113962037
 31
0.0
1001
CHIEFARC-LNWT
1070
    12
  0
LINE
  5
3F6
330
1F
100
AcDbEntity
  8
Text
100
AcDbLine
 10
515.9510286484403
 20
626.3299900729507
 30
0.0
 11
515.0274054282049
 21
626.7876145336628
 31
0.0
  0
LINE
  5
3F7
330
1F
100
AcDbEntity
  8
Text
100
AcDbLine
 10
515.9510286484403
 20
626.3299900729507
 30
0.0
 11
515.3514196709207
 21
627.1684225831015
 31
0.0
  0
LWPOLYLINE
  5
3F8
330
1F
100
AcDbEntity
  8
Text
100
AcDbPolyline
 90
        3
 70
     0
 43
0.0
 10
495.4910018950612
 20
632.3437003598855
 10
508.883224267178
 20
632.3437003598854
 10
515.9510286484403
 20
626.3299900729507
  0
LINE
  5
3F9
330
1F
100
AcDbEntity
  8
Text
100
AcDbLine
 10
515.7214808610574
 20
631.0140014784982
 30
0.0
 11
514.8206050651057
 21
631.5149234287743
 31
0.0
  0
LINE
  5
3FA
330
1F
100
AcDbEntity
  8
Text
100
AcDbLine
 10
515.7214808610574
 20
631.0140014784982
 30
0.0
 11
515.1623184294652
 21
631.8799329856603
 31
0.0
  0
LWPOLYLINE
  5
3FB
330
1F
100
AcDbEntity
  8
Text
100
AcDbPolyline
 90
        3
 70
     0
 43
0.0
 10
499.8035018950612
 20
636.7981632575663
 10
509.5429858177292
 20
636.7981632575662
 10
515.7214808610574
 20
631.0140014784982
  0
LINE
  5
3FC
330
1F
100
AcDbEntity
  8
Text
100
AcDbLine
 10
518.1989304145399
 20
609.0285922775943
 30
0.0
 11
517.3150469380566
 21
609.5589223634842
 31
0.0
  0
LINE
  5
3FD
330
1F
100
AcDbEntity
  8
Text
100
AcDbLine
 10
518.1989304145399
 20
609.0285922775943
 30
0.0
 11
517.66860032865
 21
609.9124757540775
 31
0.0
  0
LWPOLYLINE
  5
3FE
330
1F
100
AcDbEntity
  8
Text
100
AcDbPolyline
 90
        3
 70
     0
 43
0.0
 10
504.3825967583433
 20
616.9571188012403
 10
510.2704038908939
 20
616.9571188012403
 10
518.1989304145399
 20
609.0285922775943
  0
INSERT
  5
3FF
330
1F
100
AcDbEntity
  8
_DEFAULT_CAD_LAYER
100
AcDbBlockReference
  2
block34_1
 10
527.1739872289951
 20
657.4057392801507
 30
0.0
 41
0.6084419281343898
 42
0.608441928135096
 50
90.0
  0
LINE
  5
400
330
1F
100
AcDbEntity
  8
Text
100
AcDbLine
 10
517.0085442333308
 20
621.093921748637
 30
0.0
 11
516.1246607568476
 21
621.6242518345268
 31
0.0
  0
LINE
  5
401
330
1F
100
AcDbEntity
  8
Text
100
AcDbLine
 10
517.0085442333308
 20
621.093921748637
 30
0.0
 11
516.4782141474409
 21
621.9778052251202
 31
0.0
  0
LWPOLYLINE
  5
402
330
1F
100
AcDbEntity
  8
Text
100
AcDbPolyline
 90
        3
 70
     0
 43
0.0
 10
500.6745135239416
 20
628.0031538667718
 10
510.0993121151959
 20
628.0031538667718
 10
517.0085442333308
 20
621.093921748637
  0
LWPOLYLINE
  5
403
330
1F
100
AcDbEntity
  8
_DEFAULT_CAD_LAYER
370
    15
100
AcDbPolyline
 90
        4
 70
     0
 43
0.0
 10
516.0704645100174
 20
600.8714020195008
 10
516.0704645100174
 20
599.2861485983947
 10
518.202786460358
 20
599.2861485983947
 10
518.202786460358
 20
602.3473276184617
  0
LINE
  5
404
330
1F
100
AcDbEntity
  8
Text
100
AcDbLine
 10
518.1583158850034
 20
601.9001489536229
 30
0.0
 11
517.2744324085202
 21
602.4304790395128
 31
0.0
  0
LINE
  5
405
330
1F
100
AcDbEntity
  8
Text
100
AcDbLine
 10
518.1583158850034
 20
601.9001489536229
 30
0.0
 11
517.6279857991135
 21
602.7840324301061
 31
0.0
  0
LWPOLYLINE
  5
406
330
1F
100
AcDbEntity
  8
Text
100
AcDbPolyline
 90
        3
 70
     0
 43
0.0
 10
505.1992628649521
 20
610.0872780126635
 10
509.9711868259629
 20
610.0872780126635
 10
518.1583158850034
 20
601.9001489536229
  0
INSERT
  5
407
330
1F
100
AcDbEntity
  8
_DEFAULT_CAD_LAYER
100
AcDbBlockReference
  2
block34_1
 10
512.6251445686577
 20
590.1093975064119
 30
0.0
 50
-90.0
  0
ENDSEC
  0
SECTION
  2
OBJECTS
  0
DICTIONARY
  5
C
330
0
100
AcDbDictionary
281
     1
  3
ACAD_GROUP
350
D
  3
ACAD_LAYOUT
350
1A
  3
ACAD_MLEADERSTYLE
350
409
  3
ACAD_MLINESTYLE
350
17
  3
ACAD_PLOTSETTINGS
350
19
  3
ACAD_PLOTSTYLENAME
350
E
  3
ACAD_TABLESTYLE
350
408
  3
ACAD_VISUALSTYLE
350
2A
  0
DICTIONARY
  5
D
102
{ACAD_REACTORS
330
C
102
}
330
C
100
AcDbDictionary
281
     1
  0
DICTIONARY
  5
1A
102
{ACAD_REACTORS
330
C
102
}
330
C
100
AcDbDictionary
281
     1
  3
Layout1
350
1E
  3
Layout2
350
26
  3
Model
350
22
  0
DICTIONARY
  5
409
102
{ACAD_REACTORS
330
C
102
}
330
C
100
AcDbDictionary
281
     1
  0
DICTIONARY
  5
17
102
{ACAD_REACTORS
330
C
102
}
330
C
100
AcDbDictionary
281
     1
  3
Standard
350
18
  0
DICTIONARY
  5
19
102
{ACAD_REACTORS
330
C
102
}
330
C
100
AcDbDictionary
281
     1
  0
ACDBDICTIONARYWDFLT
  5
E
102
{ACAD_REACTORS
330
C
102
}
330
C
100
AcDbDictionary
281
     1
  3
Normal
350
F
100
AcDbDictionaryWithDefault
340
F
  0
DICTIONARY
  5
408
102
{ACAD_REACTORS
330
C
102
}
330
C
100
AcDbDictionary
281
     1
  0
DICTIONARY
  5
2A
102
{ACAD_REACTORS
330
C
102
}
330
C
100
AcDbDictionary
281
     1
  3
2dWireframe
350
2F
  3
3D Hidden
350
31
  3
3dWireframe
350
30
  3
Basic
350
32
  3
Brighten
350
36
  3
ColorChange
350
3A
  3
Conceptual
350
34
  3
Dim
350
35
  3
Facepattern
350
39
  3
Flat
350
2B
  3
FlatWithEdges
350
2C
  3
Gouraud
350
2D
  3
GouraudWithEdges
350
2E
  3
Linepattern
350
38
  3
Realistic
350
33
  3
Thicken
350
37
  0
LAYOUT
  5
1E
102
{ACAD_REACTORS
330
1A
102
}
330
1A
100
AcDbPlotSettings
  1

  2
none_device
  4

  6

 40
0.0
 41
0.0
 42
0.0
 43
0.0
 44
0.0
 45
0.0
 46
0.0
 47
0.0
 48
0.0
 49
0.0
140
0.0
141
0.0
142
1.0
143
1.0
 70
   688
 72
     0
 73
     0
 74
     5
  7

 75
    16
 76
     0
 77
     2
 78
   300
147
1.0
148
0.0
149
0.0
100
AcDbLayout
  1
Layout1
 70
     1
 71
     1
 10
0.0
 20
0.0
 11
12.0
 21
9.0
 12
0.0
 22
0.0
 32
0.0
 14
1.000000000000000E+20
 24
1.000000000000000E+20
 34
1.000000000000000E+20
 15
-1.000000000000000E+20
 25
-1.000000000000000E+20
 35
-1.000000000000000E+20
146
0.0
 13
0.0
 23
0.0
 33
0.0
 16
1.0
 26
0.0
 36
0.0
 17
0.0
 27
1.0
 37
0.0
 76
     0
330
1B
  0
LAYOUT
  5
26
102
{ACAD_REACTORS
330
1A
102
}
330
1A
100
AcDbPlotSettings
  1

  2
none_device
  4

  6

 40
0.0
 41
0.0
 42
0.0
 43
0.0
 44
0.0
 45
0.0
 46
0.0
 47
0.0
 48
0.0
 49
0.0
140
0.0
141
0.0
142
1.0
143
1.0
 70
   688
 72
     0
 73
     0
 74
     5
  7

 75
    16
 76
     0
 77
     2
 78
   300
147
1.0
148
0.0
149
0.0
100
AcDbLayout
  1
Layout2
 70
     1
 71
     2
 10
0.0
 20
0.0
 11
0.0
 21
0.0
 12
0.0
 22
0.0
 32
0.0
 14
0.0
 24
0.0
 34
0.0
 15
0.0
 25
0.0
 35
0.0
146
0.0
 13
0.0
 23
0.0
 33
0.0
 16
1.0
 26
0.0
 36
0.0
 17
0.0
 27
1.0
 37
0.0
 76
     0
330
23
  0
LAYOUT
  5
22
102
{ACAD_REACTORS
330
1A
102
}
330
1A
100
AcDbPlotSettings
  1

  2
none_device
  4

  6

 40
0.0
 41
0.0
 42
0.0
 43
0.0
 44
0.0
 45
0.0
 46
0.0
 47
0.0
 48
0.0
 49
0.0
140
0.0
141
0.0
142
1.0
143
1.0
 70
  1712
 72
     0
 73
     0
 74
     0
  7

 75
     0
 76
     0
 77
     2
 78
   300
147
1.0
148
0.0
149
0.0
100
AcDbLayout
  1
Model
 70
     1
 71
     0
 10
0.0
 20
0.0
 11
12.0
 21
9.0
 12
0.0
 22
0.0
 32
0.0
 14
0.0
 24
1.0
 34
0.0
 15
1.0
 25
0.0
 35
0.0
146
0.0
 13
0.0
 23
0.0
 33
0.0
 16
1.0
 26
0.0
 36
0.0
 17
0.0
 27
1.0
 37
0.0
 76
     0
330
1F
331
29
  0
MLINESTYLE
  5
18
102
{ACAD_REACTORS
330
17
102
}
330
17
100
AcDbMlineStyle
  2
Standard
 70
     0
  3

 62
   256
 51
90.0
 52
90.0
 71
     2
 49
0.5
 62
   256
  6
BYLAYER
 49
-0.5
 62
   256
  6
BYLAYER
  0
ACDBPLACEHOLDER
  5
F
102
{ACAD_REACTORS
330
E
102
}
330
E
  0
VISUALSTYLE
  5
2F
102
{ACAD_REACTORS
330
2A
102
}
330
2A
100
AcDbVisualStyle
  2
2dWireframe
 70
     4
 71
     0
 72
     2
 73
     0
 90
        0
 40
-0.6
 41
-30.0
 62
     5
 63
     7
421
 16777215
 74
     1
 91
        4
 64
     7
 65
   257
 75
     1
175
     1
 42
1.0
 92
        0
 66
   257
 43
1.0
 76
     1
 77
     6
 78
     2
 67
     7
 79
     5
170
     0
171
     0
290
     0
174
     0
 93
        1
 44
0.0
173
     0
291
     0
 45
0.0
  0
VISUALSTYLE
  5
31
102
{ACAD_REACTORS
330
2A
102
}
330
2A
100
AcDbVisualStyle
  2
3D Hidden
 70
     6
 71
     1
 72
     2
 73
     2
 90
        0
 40
-0.6
 41
-30.0
 62
     5
 63
     7
421
 16777215
 74
     2
 91
        2
 64
     7
 65
   257
 75
     2
175
     1
 42
40.0
 92
        0
 66
   257
 43
1.0
 76
     1
 77
     6
 78
     2
 67
     7
 79
     3
170
     0
171
     0
290
     0
174
     0
 93
        1
 44
0.0
173
     0
291
     0
 45
0.0
  0
VISUALSTYLE
  5
30
102
{ACAD_REACTORS
330
2A
102
}
330
2A
100
AcDbVisualStyle
  2
3dWireframe
 70
     5
 71
     0
 72
     2
 73
     0
 90
        0
 40
-0.6
 41
-30.0
 62
     5
 63
     7
421
 16777215
 74
     1
 91
        4
 64
     7
 65
   257
 75
     1
175
     1
 42
1.0
 92
        0
 66
   257
 43
1.0
 76
     1
 77
     6
 78
     2
 67
     7
 79
     5
170
     0
171
     0
290
     0
174
     0
 93
        1
 44
0.0
173
     0
291
     0
 45
0.0
  0
VISUALSTYLE
  5
32
102
{ACAD_REACTORS
330
2A
102
}
330
2A
100
AcDbVisualStyle
  2
Basic
 70
     7
 71
     1
 72
     0
 73
     1
 90
        0
 40
-0.6
 41
-30.0
 62
     5
 63
     7
421
 16777215
 74
     0
 91
        4
 64
     7
 65
   257
 75
     1
175
     1
 42
1.0
 92
        8
 66
     7
 43
1.0
 76
     1
 77
     6
 78
     2
 67
     7
 79
     5
170
     0
171
     0
290
     0
174
     0
 93
        1
 44
0.0
173
     0
291
     1
 45
0.0
  0
VISUALSTYLE
  5
36
102
{ACAD_REACTORS
330
2A
102
}
330
2A
100
AcDbVisualStyle
  2
Brighten
 70
    12
 71
     2
 72
     2
 73
     0
 90
        0
 40
-0.6
 41
-30.0
 62
     5
 63
     7
421
 16777215
 74
     1
 91
        4
 64
     7
 65
   257
 75
     1
175
     1
 42
1.0
 92
        8
 66
     7
 43
1.0
 76
     1
 77
     6
 78
     2
 67
     7
 79
     5
170
     0
171
     0
290
     0
174
     0
 93
        1
 44
50.0
173
     0
291
     1
 45
0.0
  0
VISUALSTYLE
  5
3A
102
{ACAD_REACTORS
330
2A
102
}
330
2A
100
AcDbVisualStyle
  2
ColorChange
 70
    16
 71
     2
 72
     2
 73
     3
 90
        0
 40
-0.6
 41
-30.0
 62
     5
 63
     8
421
  8421504
 74
     1
 91
        4
 64
     7
 65
   257
 75
     1
175
     1
 42
1.0
 92
        8
 66
     8
424
  8421504
 43
1.0
 76
     1
 77
     6
 78
     2
 67
     7
 79
     5
170
     0
171
     0
290
     0
174
     0
 93
        1
 44
0.0
173
     0
291
     1
 45
0.0
  0
VISUALSTYLE
  5
34
102
{ACAD_REACTORS
330
2A
102
}
330
2A
100
AcDbVisualStyle
  2
Conceptual
 70
     9
 71
     3
 72
     2
 73
     0
 90
        0
 40
-0.6
 41
-30.0
 62
     5
 63
     7
421
 16777215
 74
     2
 91
        2
 64
     7
 65
   257
 75
     1
175
     1
 42
40.0
 92
        8
 66
     7
 43
1.0
 76
     1
 77
     6
 78
     2
 67
     7
 79
     3
170
     0
171
     0
290
     0
174
     0
 93
        1
 44
0.0
173
     0
291
     0
 45
0.0
  0
VISUALSTYLE
  5
35
102
{ACAD_REACTORS
330
2A
102
}
330
2A
100
AcDbVisualStyle
  2
Dim
 70
    11
 71
     2
 72
     2
 73
     0
 90
        0
 40
-0.6
 41
-30.0
 62
     5
 63
     7
421
 16777215
 74
     1
 91
        4
 64
     7
 65
   257
 75
     1
175
     1
 42
1.0
 92
        8
 66
     7
 43
1.0
 76
     1
 77
     6
 78
     2
 67
     7
 79
     5
170
     0
171
     0
290
     0
174
     0
 93
        1
 44
-50.0
173
     0
291
     1
 45
0.0
  0
VISUALSTYLE
  5
39
102
{ACAD_REACTORS
330
2A
102
}
330
2A
100
AcDbVisualStyle
  2
Facepattern
 70
    15
 71
     2
 72
     2
 73
     0
 90
        0
 40
-0.6
 41
-30.0
 62
     5
 63
     7
421
 16777215
 74
     1
 91
        4
 64
     7
 65
   257
 75
     1
175
     1
 42
1.0
 92
        8
 66
     7
 43
1.0
 76
     1
 77
     6
 78
     2
 67
     7
 79
     5
170
     0
171
     0
290
     0
174
     0
 93
        1
 44
0.0
173
     0
291
     1
 45
0.0
  0
VISUALSTYLE
  5
2B
102
{ACAD_REACTORS
330
2A
102
}
330
2A
100
AcDbVisualStyle
  2
Flat
 70
     0
 71
     2
 72
     1
 73
     1
 90
        2
 40
-0.6
 41
30.0
 62
     5
 63
     7
421
 16777215
 74
     0
 91
        4
 64
     7
 65
   257
 75
     1
175
     1
 42
1.0
 92
        8
 66
     7
 43
1.0
 76
     1
 77
     6
 78
     2
 67
     7
 79
     5
170
     0
171
     0
290
     0
174
     0
 93
       13
 44
0.0
173
     0
291
     1
 45
0.0
  0
VISUALSTYLE
  5
2C
102
{ACAD_REACTORS
330
2A
102
}
330
2A
100
AcDbVisualStyle
  2
FlatWithEdges
 70
     1
 71
     2
 72
     1
 73
     1
 90
        2
 40
-0.6
 41
30.0
 62
     5
 63
     7
421
 16777215
 74
     1
 91
        4
 64
     7
 65
   257
 75
     1
175
     1
 42
1.0
 92
        0
 66
   257
 43
1.0
 76
     1
 77
     6
 78
     2
 67
     7
 79
     5
170
     0
171
     0
290
     0
174
     0
 93
       13
 44
0.0
173
     0
291
     1
 45
0.0
  0
VISUALSTYLE
  5
2D
102
{ACAD_REACTORS
330
2A
102
}
330
2A
100
AcDbVisualStyle
  2
Gouraud
 70
     2
 71
     2
 72
     2
 73
     1
 90
        2
 40
-0.6
 41
30.0
 62
     5
 63
     7
421
 16777215
 74
     0
 91
        4
 64
     7
 65
   257
 75
     1
175
     1
 42
1.0
 92
        0
 66
     7
 43
1.0
 76
     1
 77
     6
 78
     2
 67
     7
 79
     5
170
     0
171
     0
290
     0
174
     0
 93
       13
 44
0.0
173
     0
291
     1
 45
0.0
  0
VISUALSTYLE
  5
2E
102
{ACAD_REACTORS
330
2A
102
}
330
2A
100
AcDbVisualStyle
  2
GouraudWithEdges
 70
     3
 71
     2
 72
     2
 73
     1
 90
        2
 40
-0.6
 41
30.0
 62
     5
 63
     7
421
 16777215
 74
     1
 91
        4
 64
     7
 65
   257
 75
     1
175
     1
 42
1.0
 92
        0
 66
   257
 43
1.0
 76
     1
 77
     6
 78
     2
 67
     7
 79
     5
170
     0
171
     0
290
     0
174
     0
 93
       13
 44
0.0
173
     0
291
     1
 45
0.0
  0
VISUALSTYLE
  5
38
102
{ACAD_REACTORS
330
2A
102
}
330
2A
100
AcDbVisualStyle
  2
Linepattern
 70
    14
 71
     2
 72
     2
 73
     0
 90
        0
 40
-0.6
 41
-30.0
 62
     5
 63
     7
421
 16777215
 74
     1
 91
        4
 64
     7
 65
   257
 75
     7
175
     7
 42
1.0
 92
        8
 66
     7
 43
1.0
 76
     1
 77
     6
 78
     2
 67
     7
 79
     5
170
     0
171
     0
290
     0
174
     0
 93
        1
 44
0.0
173
     0
291
     1
 45
0.0
  0
VISUALSTYLE
  5
33
102
{ACAD_REACTORS
330
2A
102
}
330
2A
100
AcDbVisualStyle
  2
Realistic
 70
     8
 71
     2
 72
     2
 73
     0
 90
        0
 40
-0.6
 41
-30.0
 62
     5
 63
     7
421
 16777215
 74
     1
 91
        0
 64
     7
 65
   257
 75
     1
175
     1
 42
1.0
 92
        8
 66
     8
424
  7895160
 43
1.0
 76
     1
 77
     6
 78
     2
 67
     7
 79
     5
170
     0
171
     0
290
     0
174
     0
 93
       13
 44
0.0
173
     0
291
     0
 45
0.0
  0
VISUALSTYLE
  5
37
102
{ACAD_REACTORS
330
2A
102
}
330
2A
100
AcDbVisualStyle
  2
Thicken
 70
    13
 71
     2
 72
     2
 73
     0
 90
        0
 40
-0.6
 41
-30.0
 62
     5
 63
     7
421
 16777215
 74
     1
 91
        4
 64
     7
 65
   257
 75
     1
175
     1
 42
1.0
 92
       12
 66
     7
 43
1.0
 76
     1
 77
     6
 78
     2
 67
     7
 79
     5
170
     0
171
     0
290
     0
174
     0
 93
        1
 44
0.0
173
     0
291
     1
 45
0.0
  0
ENDSEC
  0
EOF
