  0
SECTION
  2
HEADER
  9
$ACADVER
  1
AC1021
  9
$ACADMAINTVER
 70
    25
  9
$DWGCODEPAGE
  3
ANSI_1252
  9
$COMMENTS
  1
Chief Architect X2; Version 12.6.0.25; Chief Architect, Inc.; 2009
  9
$INSBASE
 10
0.0
 20
0.0
 30
0.0
  9
$EXTMIN
 10
0.0
 20
1.0
 30
0.0
  9
$EXTMAX
 10
1.0
 20
0.0
 30
0.0
  9
$LIMMIN
 10
0.0
 20
0.0
  9
$LIMMAX
 10
12.0
 20
9.0
  9
$ORTHOMODE
 70
     0
  9
$REGENMODE
 70
     1
  9
$FILLMODE
 70
     1
  9
$QTEXTMODE
 70
     0
  9
$MIRRTEXT
 70
     1
  9
$LTSCALE
 40
96.0
  9
$ATTMODE
 70
     1
  9
$TEXTSIZE
 40
0.2
  9
$TRACEWID
 40
0.05
  9
$TEXTSTYLE
  7
Standard
  9
$CLAYER
  8
0
  9
$CELTYPE
  6
ByLayer
  9
$CECOLOR
 62
   256
  9
$CELTSCALE
 40
1.0
  9
$DISPSILH
 70
     0
  9
$DIMSCALE
 40
1.0
  9
$DIMASZ
 40
5.0
  9
$DIMEXO
 40
3.0
  9
$DIMDLI
 40
0.38
  9
$DIMRND
 40
0.0
  9
$DIMDLE
 40
0.0
  9
$DIMEXE
 40
3.0
  9
$DIMTP
 40
0.0
  9
$DIMTM
 40
0.0
  9
$DIMTXT
 40
6.0
  9
$DIMCEN
 40
0.09
  9
$DIMTSZ
 40
0.0
  9
$DIMTOL
 70
     0
  9
$DIMLIM
 70
     0
  9
$DIMTIH
 70
     0
  9
$DIMTOH
 70
     0
  9
$DIMSE1
 70
     0
  9
$DIMSE2
 70
     0
  9
$DIMTAD
 70
     0
  9
$DIMZIN
 70
     0
  9
$DIMBLK
  1

  9
$DIMASO
 70
     1
  9
$DIMSHO
 70
     1
  9
$DIMPOST
  1

  9
$DIMAPOST
  1

  9
$DIMALT
 70
     0
  9
$DIMALTD
 70
     0
  9
$DIMALTF
 40
1.0
  9
$DIMLFAC
 40
1.0
  9
$DIMTOFL
 70
     0
  9
$DIMTVP
 40
0.0
  9
$DIMTIX
 70
     0
  9
$DIMSOXD
 70
     0
  9
$DIMSAH
 70
     0
  9
$DIMBLK1
  1

  9
$DIMBLK2
  1

  9
$DIMSTYLE
  2
Standard
  9
$DIMCLRD
 70
     0
  9
$DIMCLRE
 70
     0
  9
$DIMCLRT
 70
     0
  9
$DIMTFAC
 40
1.0
  9
$DIMGAP
 40
0.5
  9
$DIMJUST
 70
     0
  9
$DIMSD1
 70
     0
  9
$DIMSD2
 70
     0
  9
$DIMTOLJ
 70
     1
  9
$DIMTZIN
 70
     0
  9
$DIMALTZ
 70
    12
  9
$DIMALTTZ
 70
     0
  9
$DIMUPT
 70
     0
  9
$DIMDEC
 70
     4
  9
$DIMTDEC
 70
     4
  9
$DIMALTU
 70
     2
  9
$DIMALTTD
 70
     2
  9
$DIMTXSTY
  7
Standard
  9
$DIMAUNIT
 70
     0
  9
$DIMADEC
 70
     0
  9
$DIMALTRND
 40
0.0
  9
$DIMAZIN
 70
     0
  9
$DIMDSEP
 70
    46
  9
$DIMATFIT
 70
     3
  9
$DIMFRAC
 70
     2
  9
$DIMLDRBLK
  1

  9
$DIMLUNIT
 70
     4
  9
$DIMLWD
 70
    -2
  9
$DIMLWE
 70
    -2
  9
$DIMTMOVE
 70
     0
  9
$DIMFXL
 40
3.0
  9
$DIMFXLON
 70
     0
  9
$DIMJOGANG
 40
0.7853981633974483
  9
$DIMTFILL
 70
     0
  9
$DIMTFILLCLR
 70
     0
  9
$DIMARCSYM
 70
     0
  9
$DIMLTYPE
  6

  9
$DIMLTEX1
  6

  9
$DIMLTEX2
  6

  9
$LUNITS
 70
     2
  9
$LUPREC
 70
     4
  9
$SKETCHINC
 40
0.1
  9
$FILLETRAD
 40
0.5
  9
$AUNITS
 70
     0
  9
$AUPREC
 70
     0
  9
$MENU
  1
.
  9
$ELEVATION
 40
0.0
  9
$PELEVATION
 40
0.0
  9
$THICKNESS
 40
0.0
  9
$LIMCHECK
 70
     0
  9
$CHAMFERA
 40
0.5
  9
$CHAMFERB
 40
0.5
  9
$CHAMFERC
 40
1.0
  9
$CHAMFERD
 40
0.0
  9
$SKPOLY
 70
     0
  9
$TDCREATE
 40
2455498.563208113
  9
$TDUCREATE
 40
2455498.771541447
  9
$TDUPDATE
 40
2455498.563208125
  9
$TDUUPDATE
 40
2455498.771541459
  9
$TDINDWG
 40
0.0000000116
  9
$TDUSRTIMER
 40
0.0000000116
  9
$USRTIMER
 70
     1
  9
$ANGBASE
 50
0.0
  9
$ANGDIR
 70
     0
  9
$PDMODE
 70
     0
  9
$PDSIZE
 40
0.0
  9
$PLINEWID
 40
0.0
  9
$SPLFRAME
 70
     0
  9
$SPLINETYPE
 70
     6
  9
$SPLINESEGS
 70
     8
  9
$HANDSEED
  5
3AE
  9
$SURFTAB1
 70
     6
  9
$SURFTAB2
 70
     6
  9
$SURFTYPE
 70
     6
  9
$SURFU
 70
     6
  9
$SURFV
 70
     6
  9
$UCSBASE
  2

  9
$UCSNAME
  2

  9
$UCSORG
 10
0.0
 20
0.0
 30
0.0
  9
$UCSXDIR
 10
1.0
 20
0.0
 30
0.0
  9
$UCSYDIR
 10
0.0
 20
1.0
 30
0.0
  9
$UCSORTHOREF
  2

  9
$UCSORTHOVIEW
 70
     0
  9
$UCSORGTOP
 10
0.0
 20
0.0
 30
0.0
  9
$UCSORGBOTTOM
 10
0.0
 20
0.0
 30
0.0
  9
$UCSORGLEFT
 10
0.0
 20
0.0
 30
0.0
  9
$UCSORGRIGHT
 10
0.0
 20
0.0
 30
0.0
  9
$UCSORGFRONT
 10
0.0
 20
0.0
 30
0.0
  9
$UCSORGBACK
 10
0.0
 20
0.0
 30
0.0
  9
$PUCSBASE
  2

  9
$PUCSNAME
  2

  9
$PUCSORG
 10
0.0
 20
0.0
 30
0.0
  9
$PUCSXDIR
 10
1.0
 20
0.0
 30
0.0
  9
$PUCSYDIR
 10
0.0
 20
1.0
 30
0.0
  9
$PUCSORTHOREF
  2

  9
$PUCSORTHOVIEW
 70
     0
  9
$PUCSORGTOP
 10
0.0
 20
0.0
 30
0.0
  9
$PUCSORGBOTTOM
 10
0.0
 20
0.0
 30
0.0
  9
$PUCSORGLEFT
 10
0.0
 20
0.0
 30
0.0
  9
$PUCSORGRIGHT
 10
0.0
 20
0.0
 30
0.0
  9
$PUCSORGFRONT
 10
0.0
 20
0.0
 30
0.0
  9
$PUCSORGBACK
 10
0.0
 20
0.0
 30
0.0
  9
$USERI1
 70
     0
  9
$USERI2
 70
     0
  9
$USERI3
 70
     0
  9
$USERI4
 70
     0
  9
$USERI5
 70
     0
  9
$USERR1
 40
0.0
  9
$USERR2
 40
0.0
  9
$USERR3
 40
0.0
  9
$USERR4
 40
0.0
  9
$USERR5
 40
0.0
  9
$WORLDVIEW
 70
     1
  9
$SHADEDGE
 70
     3
  9
$SHADEDIF
 70
    70
  9
$TILEMODE
 70
     1
  9
$MAXACTVP
 70
    64
  9
$PINSBASE
 10
0.0
 20
0.0
 30
0.0
  9
$PLIMCHECK
 70
     0
  9
$PEXTMIN
 10
1.000000000000000E+20
 20
1.000000000000000E+20
 30
1.000000000000000E+20
  9
$PEXTMAX
 10
-1.000000000000000E+20
 20
-1.000000000000000E+20
 30
-1.000000000000000E+20
  9
$PLIMMIN
 10
0.0
 20
0.0
  9
$PLIMMAX
 10
12.0
 20
9.0
  9
$UNITMODE
 70
     0
  9
$VISRETAIN
 70
     1
  9
$PLINEGEN
 70
     0
  9
$PSLTSCALE
 70
     1
  9
$TREEDEPTH
 70
  3020
  9
$CMLSTYLE
  2
Standard
  9
$CMLJUST
 70
     0
  9
$CMLSCALE
 40
1.0
  9
$PROXYGRAPHICS
 70
     1
  9
$MEASUREMENT
 70
     0
  9
$CELWEIGHT
370
    -1
  9
$ENDCAPS
280
     0
  9
$JOINSTYLE
280
     0
  9
$LWDISPLAY
290
     0
  9
$INSUNITS
 70
     1
  9
$HYPERLINKBASE
  1

  9
$STYLESHEET
  1

  9
$XEDIT
290
     1
  9
$CEPSNTYPE
380
     0
  9
$PSTYLEMODE
290
     1
  9
$FINGERPRINTGUID
  2
{2C27AC34-6736-4D70-9258-5B50FF16E5F2}
  9
$VERSIONGUID
  2
{FAEB1C32-E019-11D5-929B-00C0DF256EC4}
  9
$EXTNAMES
290
     1
  9
$PSVPSCALE
 40
0.0
  9
$OLESTARTUP
290
     0
  9
$SORTENTS
280
   127
  9
$INDEXCTL
280
     0
  9
$HIDETEXT
280
     1
  9
$XCLIPFRAME
290
     0
  9
$HALOGAP
280
     0
  9
$OBSCOLOR
 70
   257
  9
$OBSLTYPE
280
     0
  9
$INTERSECTIONDISPLAY
280
     0
  9
$INTERSECTIONCOLOR
 70
   257
  9
$DIMASSOC
280
     2
  9
$PROJECTNAME
  1

  9
$CAMERADISPLAY
290
     0
  9
$LENSLENGTH
 40
50.0
  9
$CAMERAHEIGHT
 40
0.0
  9
$STEPSPERSEC
 40
2.0
  9
$STEPSIZE
 40
6.0
  9
$3DDWFPREC
 40
2.0
  9
$PSOLWIDTH
 40
0.25
  9
$PSOLHEIGHT
 40
4.0
  9
$LOFTANG1
 40
1.570796326794897
  9
$LOFTANG2
 40
1.570796326794897
  9
$LOFTMAG1
 40
0.0
  9
$LOFTMAG2
 40
0.0
  9
$LOFTPARAM
 70
     7
  9
$LOFTNORMALS
280
     1
  9
$LATITUDE
 40
37.795
  9
$LONGITUDE
 40
-122.394
  9
$NORTHDIRECTION
 40
0.0
  9
$TIMEZONE
 70
 -8000
  9
$LIGHTGLYPHDISPLAY
280
     1
  9
$TILEMODELIGHTSYNCH
280
     1
  9
$SOLIDHIST
280
     1
  9
$SHOWHIST
280
     1
  9
$DWFFRAME
280
     2
  9
$DGNFRAME
280
     2
  9
$REALWORLDSCALE
290
     1
  9
$INTERFERECOLOR
 62
   256
  9
$CSHADOW
280
     0
  9
$SHADOWPLANELOCATION
 40
0.0
  0
ENDSEC
  0
SECTION
  2
CLASSES
  0
CLASS
  1
ACDBDICTIONARYWDFLT
  2
AcDbDictionaryWithDefault
  3
ObjectDBX Classes
 90
        0
 91
        4
280
     0
281
     0
  0
CLASS
  1
VISUALSTYLE
  2
AcDbVisualStyle
  3
ObjectDBX Classes
 90
     4095
 91
        4
280
     0
281
     0
  0
ENDSEC
  0
SECTION
  2
TABLES
  0
TABLE
  2
VPORT
  5
8
330
0
100
AcDbSymbolTable
 70
     1
  0
VPORT
  5
29
330
8
100
AcDbSymbolTableRecord
100
AcDbViewportTableRecord
  2
*Active
 70
     0
 10
0.0
 20
0.0
 11
1.0
 21
1.0
 12
10.42990654205607
 22
4.5
 13
0.0
 23
0.0
 14
0.5
 24
0.5
 15
0.5
 25
0.5
 16
0.0
 26
0.0
 36
1.0
 17
0.0
 27
0.0
 37
0.0
 40
9.0
 41
1.972972972850329
 42
50.0
 43
0.0
 44
0.0
 50
0.0
 51
0.0
 71
     0
 72
   100
 73
     1
 74
     3
 75
     0
 76
     0
 77
     0
 78
     0
281
     0
 65
     1
110
0.0
120
0.0
130
0.0
111
1.0
121
0.0
131
0.0
112
0.0
122
1.0
132
0.0
 79
     0
146
0.0
 60
     3
 61
     5
292
     1
282
     1
141
0.0
142
0.0
 63
   250
  0
ENDTAB
  0
TABLE
  2
LTYPE
  5
5
330
0
100
AcDbSymbolTable
 70
     2
  0
LTYPE
  5
14
330
5
100
AcDbSymbolTableRecord
100
AcDbLinetypeTableRecord
  2
ByBlock
 70
     0
  3

 72
    65
 73
     0
 40
0.0
  0
LTYPE
  5
15
330
5
100
AcDbSymbolTableRecord
100
AcDbLinetypeTableRecord
  2
ByLayer
 70
     0
  3

 72
    65
 73
     0
 40
0.0
  0
LTYPE
  5
16
330
5
100
AcDbSymbolTableRecord
100
AcDbLinetypeTableRecord
  2
Continuous
 70
     0
  3
Solid line
 72
    65
 73
     0
 40
0.0
  0
LTYPE
  5
354
330
5
100
AcDbSymbolTableRecord
100
AcDbLinetypeTableRecord
  2
ISO08W100
 70
     0
  3
ISO08W100 LINE
 72
    65
 73
     4
 40
0.96
 49
0.48
 74
     0
 49
-0.12
 74
     0
 49
0.24
 74
     0
 49
-0.12
 74
     0
  0
ENDTAB
  0
TABLE
  2
LAYER
  5
2
330
0
100
AcDbSymbolTable
 70
     4
  0
LAYER
  5
10
330
2
100
AcDbSymbolTableRecord
100
AcDbLayerTableRecord
  2
0
 70
     0
 62
     7
  6
Continuous
370
    -3
390
F
347
0
  0
LAYER
  5
3C
330
2
100
AcDbSymbolTableRecord
100
AcDbLayerTableRecord
  2
_DEFAULT_CAD_LAYER
 70
     0
 62
     7
  6
Continuous
370
    18
390
F
347
0
  0
LAYER
  5
356
330
2
100
AcDbSymbolTableRecord
100
AcDbLayerTableRecord
  2
Text
 70
     0
 62
   156
  6
Continuous
370
     9
390
F
347
0
1001
CHIEFARC-LNWT
1070
    10
  0
ENDTAB
  0
TABLE
  2
STYLE
  5
3
330
0
100
AcDbSymbolTable
 70
     1
  0
STYLE
  5
11
330
3
100
AcDbSymbolTableRecord
100
AcDbTextStyleTableRecord
  2
Standard
 70
     0
 40
0.0
 41
1.0
 50
0.0
 71
     0
 42
0.2
  3
txt
  4

  0
ENDTAB
  0
TABLE
  2
VIEW
  5
6
330
0
100
AcDbSymbolTable
 70
     0
  0
ENDTAB
  0
TABLE
  2
UCS
  5
7
330
0
100
AcDbSymbolTable
 70
     0
  0
ENDTAB
  0
TABLE
  2
APPID
  5
9
330
0
100
AcDbSymbolTable
 70
     7
  0
APPID
  5
12
330
9
100
AcDbSymbolTableRecord
100
AcDbRegAppTableRecord
  2
ACAD
 70
     0
  0
APPID
  5
50
330
9
100
AcDbSymbolTableRecord
100
AcDbRegAppTableRecord
  2
CHIEFARC-LNWT
 70
     0
  0
APPID
  5
379
330
9
100
AcDbSymbolTableRecord
100
AcDbRegAppTableRecord
  2
CHIEFARC_RTFBINARY
 70
     0
  0
APPID
  5
37A
330
9
100
AcDbSymbolTableRecord
100
AcDbRegAppTableRecord
  2
CHIEFARC_SIMPLE_TEXT_BINARY
 70
     0
  0
APPID
  5
37B
330
9
100
AcDbSymbolTableRecord
100
AcDbRegAppTableRecord
  2
CHIEFARC-WIDTHEXPANDED
 70
     0
  0
APPID
  5
37C
330
9
100
AcDbSymbolTableRecord
100
AcDbRegAppTableRecord
  2
CHIEFARC_AUTOHEIGHT
 70
     0
  0
APPID
  5
37D
330
9
100
AcDbSymbolTableRecord
100
AcDbRegAppTableRecord
  2
CHIEFARC_AUTOWIDTH
 70
     0
  0
ENDTAB
  0
TABLE
  2
DIMSTYLE
  5
A
330
0
100
AcDbSymbolTable
 70
     2
100
AcDbDimStyleTable
  0
DIMSTYLE
105
27
330
A
100
AcDbSymbolTableRecord
100
AcDbDimStyleTableRecord
  2
Standard
 70
     0
340
11
  0
DIMSTYLE
105
3B
330
A
100
AcDbSymbolTableRecord
100
AcDbDimStyleTableRecord
  2
CHIEF
 70
     0
 41
5.0
 42
3.0
 44
3.0
 49
3.0
 73
     0
 74
     0
140
6.0
143
1.0
147
0.5
171
     0
276
     2
277
     4
285
    12
340
11
  0
ENDTAB
  0
TABLE
  2
BLOCK_RECORD
  5
1
330
0
100
AcDbSymbolTable
 70
    12
  0
BLOCK_RECORD
  5
1F
330
1
100
AcDbSymbolTableRecord
100
AcDbBlockTableRecord
  2
*Model_Space
340
22
 70
     0
280
     1
281
     0
  0
BLOCK_RECORD
  5
1B
330
1
100
AcDbSymbolTableRecord
100
AcDbBlockTableRecord
  2
*Paper_Space
340
1E
 70
     0
280
     1
281
     0
  0
BLOCK_RECORD
  5
23
330
1
100
AcDbSymbolTableRecord
100
AcDbBlockTableRecord
  2
*Paper_Space0
340
26
 70
     0
280
     1
281
     0
  0
BLOCK_RECORD
  5
3D
330
1
100
AcDbSymbolTableRecord
100
AcDbBlockTableRecord
  2
block59
340
0
102
{BLKREFS
331
FB
331
FC
102
}
 70
     0
280
     1
281
     0
  0
BLOCK_RECORD
  5
4B
330
1
100
AcDbSymbolTableRecord
100
AcDbBlockTableRecord
  2
block9_0
340
0
102
{BLKREFS
331
51
102
}
 70
     0
280
     1
281
     0
  0
BLOCK_RECORD
  5
FD
330
1
100
AcDbSymbolTableRecord
100
AcDbBlockTableRecord
  2
block66
340
0
102
{BLKREFS
331
1B4
331
1B5
102
}
 70
     0
280
     1
281
     0
  0
BLOCK_RECORD
  5
1B6
330
1
100
AcDbSymbolTableRecord
100
AcDbBlockTableRecord
  2
block50
340
0
102
{BLKREFS
331
1DE
331
1DF
331
1E0
331
1E1
102
}
 70
     0
280
     1
281
     0
  0
BLOCK_RECORD
  5
1E9
330
1
100
AcDbSymbolTableRecord
100
AcDbBlockTableRecord
  2
block63
340
0
102
{BLKREFS
331
213
331
214
102
}
 70
     0
280
     1
281
     0
  0
BLOCK_RECORD
  5
223
330
1
100
AcDbSymbolTableRecord
100
AcDbBlockTableRecord
  2
5__Bevel
340
0
102
{BLKREFS
331
28D
331
323
102
}
 70
     0
280
     1
281
     0
  0
BLOCK_RECORD
  5
291
330
1
100
AcDbSymbolTableRecord
100
AcDbBlockTableRecord
  2
block65
340
0
102
{BLKREFS
331
296
331
2A6
102
}
 70
     0
280
     1
281
     0
  0
BLOCK_RECORD
  5
328
330
1
100
AcDbSymbolTableRecord
100
AcDbBlockTableRecord
  2
block63_1
340
0
102
{BLKREFS
331
352
331
353
102
}
 70
     0
280
     1
281
     0
  0
BLOCK_RECORD
  5
38E
330
1
100
AcDbSymbolTableRecord
100
AcDbBlockTableRecord
  2
block34_1
340
0
102
{BLKREFS
331
39D
331
3AB
102
}
 70
     0
280
     1
281
     0
  0
BLOCK_RECORD
  5
396
330
1
100
AcDbSymbolTableRecord
100
AcDbBlockTableRecord
  2
Break_Line
340
0
102
{BLKREFS
331
39A
331
3A6
331
3A7
102
}
 70
     0
280
     1
281
     0
  0
BLOCK_RECORD
  5
39E
330
1
100
AcDbSymbolTableRecord
100
AcDbBlockTableRecord
  2
block35_1
340
0
102
{BLKREFS
331
3AA
102
}
 70
     0
280
     1
281
     0
  0
ENDTAB
  0
ENDSEC
  0
SECTION
  2
BLOCKS
  0
BLOCK
  5
20
330
1F
100
AcDbEntity
  8
0
100
AcDbBlockBegin
  2
*Model_Space
 70
     0
 10
0.0
 20
0.0
 30
0.0
  3
*Model_Space
  1

  0
ENDBLK
  5
21
330
1F
100
AcDbEntity
  8
0
100
AcDbBlockEnd
  0
BLOCK
  5
1C
330
1B
100
AcDbEntity
 67
     1
  8
0
100
AcDbBlockBegin
  2
*Paper_Space
 70
     0
 10
0.0
 20
0.0
 30
0.0
  3
*Paper_Space
  1

  0
ENDBLK
  5
1D
330
1B
100
AcDbEntity
 67
     1
  8
0
100
AcDbBlockEnd
  0
BLOCK
  5
24
330
23
100
AcDbEntity
  8
0
100
AcDbBlockBegin
  2
*Paper_Space0
 70
     0
 10
0.0
 20
0.0
 30
0.0
  3
*Paper_Space0
  1

  0
ENDBLK
  5
25
330
23
100
AcDbEntity
  8
0
100
AcDbBlockEnd
  0
BLOCK
  5
F9
330
3D
100
AcDbEntity
  8
0
100
AcDbBlockBegin
  2
block59
 70
     0
 10
0.0
 20
0.0
 30
0.0
  3
block59
  1

  0
LINE
  5
3E
330
3D
100
AcDbEntity
  8
0
 62
     8
370
     0
100
AcDbLine
 10
5.656854249492381
 20
0.0
 30
0.0
 11
5.8125
 21
0.1556457505076212
 31
0.0
  0
LINE
  5
3F
330
3D
100
AcDbEntity
  8
0
 62
     8
370
     0
100
AcDbLine
 10
4.812500000000114
 20
0.5698593128808277
 30
0.0
 11
5.8125
 21
1.569859312880714
 31
0.0
  0
LINE
  5
40
330
3D
100
AcDbEntity
  8
0
 62
     8
370
     0
100
AcDbLine
 10
4.812500000000114
 20
1.984072875253923
 30
0.0
 11
5.8125
 21
2.984072875253808
 31
0.0
  0
LINE
  5
41
330
3D
100
AcDbEntity
  8
0
 62
     8
370
     0
100
AcDbLine
 10
4.812500000000114
 20
3.398286437627018
 30
0.0
 11
5.8125
 21
4.398286437626904
 31
0.0
  0
LINE
  5
42
330
3D
100
AcDbEntity
  8
0
 62
     8
370
     0
100
AcDbLine
 10
4.812500000000114
 20
4.812500000000113
 30
0.0
 11
5.8125
 21
5.812499999999999
 31
0.0
  0
LINE
  5
43
330
3D
100
AcDbEntity
  8
0
 62
     8
370
     0
100
AcDbLine
 10
4.812500000000114
 20
6.226713562373208
 30
0.0
 11
5.8125
 21
7.226713562373093
 31
0.0
  0
LINE
  5
44
330
3D
100
AcDbEntity
  8
0
 62
     8
370
     0
100
AcDbLine
 10
4.812500000000114
 20
0.8443542494922666
 30
0.0
 11
5.656854249492381
 21
0.0
 31
0.0
  0
LINE
  5
45
330
3D
100
AcDbEntity
  8
0
 62
     8
370
     0
100
AcDbLine
 10
4.812500000000114
 20
2.258567811865361
 30
0.0
 11
5.8125
 21
1.258567811865476
 31
0.0
  0
LINE
  5
46
330
3D
100
AcDbEntity
  8
0
 62
     8
370
     0
100
AcDbLine
 10
5.8125
 20
2.67278137423857
 30
0.0
 11
4.812500000000114
 21
3.672781374238457
 31
0.0
  0
LINE
  5
47
330
3D
100
AcDbEntity
  8
0
 62
     8
370
     0
100
AcDbLine
 10
4.812500000000114
 20
5.086994936611551
 30
0.0
 11
5.8125
 21
4.086994936611664
 31
0.0
  0
LINE
  5
48
330
3D
100
AcDbEntity
  8
0
 62
     8
370
     0
100
AcDbLine
 10
4.812500000000114
 20
6.501208498984647
 30
0.0
 11
5.8125
 21
5.50120849898476
 31
0.0
  0
LINE
  5
49
330
3D
100
AcDbEntity
  8
0
 62
     8
370
     0
100
AcDbLine
 10
5.102922061357856
 20
7.625
 30
0.0
 11
5.8125
 21
6.915422061357856
 31
0.0
  0
LWPOLYLINE
  5
4A
330
3D
100
AcDbEntity
  8
0
 62
     8
370
    18
100
AcDbPolyline
 90
        4
 70
     1
 43
0.0
 10
4.812500000000114
 20
0.0
 10
4.812500000000114
 20
7.625
 10
5.8125
 20
7.625
 10
5.8125
 20
0.000000000000056
  0
INSERT
  5
51
330
3D
100
AcDbEntity
  8
0
  6
Continuous
370
     0
100
AcDbBlockReference
  2
block9_0
 10
0.0000000000000071
 20
7.624999999999886
 30
0.0
 41
1.542372881355957
1001
CHIEFARC-LNWT
1070
     0
  0
LINE
  5
52
330
3D
100
AcDbEntity
  8
0
 62
   252
370
     0
100
AcDbLine
 10
-0.0000000000000009
 20
0.0
 30
0.0
 11
0.241045353632452
 21
0.2872666661696174
 31
0.0
  0
LINE
  5
53
330
3D
100
AcDbEntity
  8
0
 62
   252
370
     0
100
AcDbLine
 10
2.892544243589427
 20
3.447199994035402
 30
0.0
 11
3.13358959722188
 21
3.734466660205018
 31
0.0
  0
LINE
  5
54
330
3D
100
AcDbEntity
  8
0
 62
   252
370
     0
100
AcDbLine
 10
-3.586300913003767
 20
0.3137606749129755
 30
0.0
 11
-3.345255559371314
 21
0.6010273410825923
 31
0.0
  0
LINE
  5
55
330
3D
100
AcDbEntity
  8
0
 62
   252
370
     0
100
AcDbLine
 10
-0.6937566694143396
 20
3.760960668948377
 30
0.0
 11
-0.4527113157818874
 21
4.048227335117994
 31
0.0
  0
LINE
  5
56
330
3D
100
AcDbEntity
  8
0
 62
   252
370
     0
100
AcDbLine
 10
2.198787574175087
 20
7.208160662983778
 30
0.0
 11
2.439832927807539
 21
7.495427329153395
 31
0.0
  0
LINE
  5
57
330
3D
100
AcDbEntity
  8
0
 62
   252
370
     0
100
AcDbLine
 10
-4.280057582418106
 20
4.074721343861352
 30
0.0
 11
-4.039012228785655
 21
4.361988010030969
 31
0.0
  0
LINE
  5
58
330
3D
100
AcDbEntity
  8
0
 62
   252
370
     0
100
AcDbLine
 10
-1.38751333882868
 20
7.521921337896754
 30
0.0
 11
-1.301020071475599
 21
7.625
 31
0.0
  0
LINE
  5
59
330
3D
100
AcDbEntity
  8
0
 62
   252
370
     0
100
AcDbLine
 10
-3.586300913130284
 20
0.3137606738915695
 30
0.0
 11
-3.28744250370276
 21
0.2876139510672719
 31
0.0
  0
LINE
  5
5A
330
3D
100
AcDbEntity
  8
0
 62
   252
370
     0
100
AcDbLine
 10
2.892544245065283
 20
3.447199994608489
 30
0.0
 11
3.191402654492806
 21
3.421053271784191
 31
0.0
  0
LINE
  5
5B
330
3D
100
AcDbEntity
  8
0
 62
   252
370
     0
100
AcDbLine
 10
-0.6937566680650007
 20
3.760960668500059
 30
0.0
 11
-0.3948982586374767
 21
3.734813945675761
 31
0.0
  0
LINE
  5
5C
330
3D
100
AcDbEntity
  8
0
 62
   252
370
     0
100
AcDbLine
 10
-4.280057581195285
 20
4.074721342391628
 30
0.0
 11
-3.981199171767761
 21
4.04857461956733
 31
0.0
  0
LINE
  5
5D
330
3D
100
AcDbEntity
  8
0
 62
   252
370
     0
100
AcDbLine
 10
2.198787577000283
 20
7.208160663108549
 30
0.0
 11
2.497645986427807
 21
7.182013940284251
 31
0.0
  0
LINE
  5
5E
330
3D
100
AcDbEntity
  8
0
 62
   252
370
     0
100
AcDbLine
 10
-1.38751333613
 20
7.521921337000117
 30
0.0
 11
-1.088654926702477
 21
7.49577461417582
 31
0.0
  0
LINE
  5
5F
330
3D
100
AcDbEntity
  8
0
 62
   252
370
     0
100
AcDbLine
 10
-3.287442239569775
 20
0.287616791109642
 30
0.0
 11
-3.345255048823567
 21
0.6010302155462591
 31
0.0
  0
LINE
  5
60
330
3D
100
AcDbEntity
  8
0
 62
   252
370
     0
100
AcDbLine
 10
-3.981195970569441
 20
4.048577992524052
 30
0.0
 11
-4.039008779823233
 21
4.361991416960668
 31
0.0
  0
LINE
  5
61
330
3D
100
AcDbEntity
  8
0
 62
   252
370
     0
100
AcDbLine
 10
0.2940353322503233
 20
0.0
 30
0.0
 11
0.241045590746208
 21
0.2872667244366174
 31
0.0
  0
LINE
  5
62
330
3D
100
AcDbEntity
  8
0
 62
   252
370
     0
100
AcDbLine
 10
-0.3948953309996661
 20
3.73481450141441
 30
0.0
 11
-0.4527081402534585
 21
4.048227925851027
 31
0.0
  0
LINE
  5
63
330
3D
100
AcDbEntity
  8
0
 62
   252
370
     0
100
AcDbLine
 10
-1.088649061999333
 20
7.49577570282882
 30
0.0
 11
-1.112486010454052
 21
7.625
 31
0.0
  0
LINE
  5
64
330
3D
100
AcDbEntity
  8
0
 62
   252
370
     0
100
AcDbLine
 10
3.191405308570108
 20
3.421051010304768
 30
0.0
 11
3.133592499316316
 21
3.734464434741385
 31
0.0
  0
LINE
  5
65
330
3D
100
AcDbEntity
  8
0
 62
   252
370
     0
100
AcDbLine
 10
2.497651577570442
 20
7.182012211719178
 30
0.0
 11
2.439838768316649
 21
7.495425636155795
 31
0.0
  0
LINE
  5
66
330
3D
100
AcDbEntity
  8
0
 62
   252
370
     0
100
AcDbLine
 10
0.0000000000000003
 20
0.9999999999999992
 30
0.0
 11
0.3894424771560434
 21
1.405882750294422
 31
0.0
  0
LINE
  5
67
330
3D
100
AcDbEntity
  8
0
 62
   252
370
     0
100
AcDbLine
 10
4.673309725872516
 20
5.870593003533076
 30
0.0
 11
4.812500000000114
 21
6.015659180416775
 31
0.0
  0
LINE
  5
68
330
3D
100
AcDbEntity
  8
0
 62
   252
370
     0
100
AcDbLine
 10
-0.6628955172557076
 20
6.698188075178167
 30
0.0
 11
-0.2734530400996645
 21
7.10407082547259
 31
0.0
  0
LINE
  5
69
330
3D
100
AcDbEntity
  8
0
 62
   252
370
     0
100
AcDbLine
 10
0.4446837250000002
 20
0.9310334649999998
 30
0.0
 11
0.3894428026678867
 21
1.405882514473589
 31
0.0
  0
LINE
  5
6A
330
3D
100
AcDbEntity
  8
0
 62
   252
370
     0
100
AcDbLine
 10
-0.2182072459197091
 20
6.629221224310095
 30
0.0
 11
-0.2734481682518225
 21
7.104070273783684
 31
0.0
  0
LINE
  5
6B
330
3D
100
AcDbEntity
  8
0
 62
   252
370
     0
100
AcDbLine
 10
-0.0000000000000009
 20
1.0
 30
0.0
 11
0.4446837702849611
 21
0.9310337441559166
 31
0.0
  0
LINE
  5
6C
330
3D
100
AcDbEntity
  8
0
 62
   252
370
     0
100
AcDbLine
 10
4.673309725668135
 20
5.870593004626625
 30
0.0
 11
4.812500000000114
 21
5.849005906756073
 31
0.0
  0
LINE
  5
6D
330
3D
100
AcDbEntity
  8
0
 62
   252
370
     0
100
AcDbLine
 10
-0.6628955177514029
 20
6.698188074755632
 30
0.0
 11
-0.2182117474664409
 21
6.629221818911548
 31
0.0
  0
LINE
  5
6E
330
3D
100
AcDbEntity
  8
0
 62
   252
370
     0
100
AcDbLine
 10
0.4999999999999998
 20
0.7500000000000001
 30
0.0
 11
0.8500926599364504
 21
0.8843879810794878
 31
0.0
  0
LINE
  5
6F
330
3D
100
AcDbEntity
  8
0
 62
   252
370
     0
100
AcDbLine
 10
4.701111919237407
 20
2.362655772953851
 30
0.0
 11
4.812500000000114
 21
2.405413651090274
 31
0.0
  0
LINE
  5
70
330
3D
100
AcDbEntity
  8
0
 62
   252
370
     0
100
AcDbLine
 10
-2.484535260592309
 20
2.763094453326694
 30
0.0
 11
-2.134442600655857
 21
2.897482434406181
 31
0.0
  0
LINE
  5
71
330
3D
100
AcDbEntity
  8
0
 62
   252
370
     0
100
AcDbLine
 10
1.7165766586451
 20
4.375750226280545
 30
0.0
 11
2.066669318581551
 21
4.510138207360033
 31
0.0
  0
LINE
  5
72
330
3D
100
AcDbEntity
  8
0
 62
   252
370
     0
100
AcDbLine
 10
-1.267958601947209
 20
6.388844679607239
 30
0.0
 11
-0.917865942010758
 21
6.523232660686727
 31
0.0
  0
LINE
  5
73
330
3D
100
AcDbEntity
  8
0
 62
   252
370
     0
100
AcDbLine
 10
0.4999999999999999
 20
0.7499999999999993
 30
0.0
 11
0.7487112717665124
 21
0.5822421289587751
 31
0.0
  0
LINE
  5
74
330
3D
100
AcDbEntity
  8
0
 62
   252
370
     0
100
AcDbLine
 10
-2.484535261198148
 20
2.763094452494689
 30
0.0
 11
-2.235823989431636
 21
2.595336581453465
 31
0.0
  0
LINE
  5
75
330
3D
100
AcDbEntity
  8
0
 62
   252
370
     0
100
AcDbLine
 10
4.70111192080606
 20
2.362655772739574
 30
0.0
 11
4.812500000000114
 21
2.287523564648466
 31
0.0
  0
LINE
  5
76
330
3D
100
AcDbEntity
  8
0
 62
   252
370
     0
100
AcDbLine
 10
1.716576659607911
 20
4.375750225234264
 30
0.0
 11
1.965287931374423
 21
4.207992354193039
 31
0.0
  0
LINE
  5
77
330
3D
100
AcDbEntity
  8
0
 62
   252
370
     0
100
AcDbLine
 10
-1.267958601590238
 20
6.388844677728954
 30
0.0
 11
-1.019247329823726
 21
6.22108680668773
 31
0.0
  0
LINE
  5
78
330
3D
100
AcDbEntity
  8
0
 62
   252
370
     0
100
AcDbLine
 10
0.748711165
 20
0.5822419700000003
 30
0.0
 11
0.8500927859827627
 21
0.8843877335940147
 31
0.0
  0
LINE
  5
79
330
3D
100
AcDbEntity
  8
0
 62
   252
370
     0
100
AcDbLine
 10
1.965290651785136
 20
4.20799123741413
 30
0.0
 11
2.066672272767899
 21
4.510137001008144
 31
0.0
  0
LINE
  5
7A
330
3D
100
AcDbEntity
  8
0
 62
   252
370
     0
100
AcDbLine
 10
-2.235822491122312
 20
2.595338753864368
 30
0.0
 11
-2.13444087013955
 21
2.897484517458381
 31
0.0
  0
LINE
  5
7B
330
3D
100
AcDbEntity
  8
0
 62
   252
370
     0
100
AcDbLine
 10
-1.019243004337176
 20
6.221088021278497
 30
0.0
 11
-0.9178613833544136
 21
6.523233784872511
 31
0.0
  0
LINE
  5
7C
330
3D
100
AcDbEntity
  8
0
 62
   252
370
     0
100
AcDbLine
 10
4.216758614585661
 20
0.0
 30
0.0
 11
4.216758614585661
 21
0.0
 31
0.0
  0
LINE
  5
7D
330
3D
100
AcDbEntity
  8
0
 62
   252
370
     0
100
AcDbLine
 10
4.510573579253001
 20
0.2254521518613343
 30
0.0
 11
4.510573579253001
 21
0.2254521518613343
 31
0.0
  0
LINE
  5
7E
330
3D
100
AcDbEntity
  8
0
 62
   252
370
     0
100
AcDbLine
 10
4.812500000000114
 20
0.4571284428844846
 30
0.0
 11
4.812500000000114
 21
0.4571284428844846
 31
0.0
  0
LINE
  5
7F
330
3D
100
AcDbEntity
  8
0
 62
   252
370
     0
100
AcDbLine
 10
2.108379307292831
 20
0.0
 30
0.0
 11
2.108379307292831
 21
0.0
 31
0.0
  0
LINE
  5
80
330
3D
100
AcDbEntity
  8
0
 62
   252
370
     0
100
AcDbLine
 10
3.442030359974487
 20
1.023346445269185
 30
0.0
 11
3.442030359974487
 21
1.023346445269185
 31
0.0
  0
LINE
  5
81
330
3D
100
AcDbEntity
  8
0
 62
   252
370
     0
100
AcDbLine
 10
4.812500000000114
 20
2.074944786266659
 30
0.0
 11
4.812500000000114
 21
2.074944786266659
 31
0.0
  0
LINE
  5
82
330
3D
100
AcDbEntity
  8
0
 62
   252
370
     0
100
AcDbLine
 10
-0.0000000000000009
 20
0.0
 30
0.0
 11
-0.0000000000000009
 21
0.0
 31
0.0
  0
LINE
  5
83
330
3D
100
AcDbEntity
  8
0
 62
   252
370
     0
100
AcDbLine
 10
2.373487140695971
 20
1.821240738677035
 30
0.0
 11
2.373487140695971
 21
1.821240738677035
 31
0.0
  0
LINE
  5
84
330
3D
100
AcDbEntity
  8
0
 62
   252
370
     0
100
AcDbLine
 10
4.812500000000114
 20
3.692761129648834
 30
0.0
 11
4.812500000000114
 21
3.692761129648834
 31
0.0
  0
LINE
  5
85
330
3D
100
AcDbEntity
  8
0
 62
   252
370
     0
100
AcDbLine
 10
0.0607992765864531
 20
1.664469269156558
 30
0.0
 11
0.0607992765864531
 21
1.664469269156558
 31
0.0
  0
LINE
  5
86
330
3D
100
AcDbEntity
  8
0
 62
   252
370
     0
100
AcDbLine
 10
2.404300692369893
 20
3.462701151854095
 30
0.0
 11
2.404300692369893
 21
3.462701151854095
 31
0.0
  0
LINE
  5
87
330
3D
100
AcDbEntity
  8
0
 62
   252
370
     0
100
AcDbLine
 10
4.812500000000114
 20
5.31057747303101
 30
0.0
 11
4.812500000000114
 21
5.31057747303101
 31
0.0
  0
LINE
  5
88
330
3D
100
AcDbEntity
  8
0
 62
   252
370
     0
100
AcDbLine
 10
-4.216758614585663
 20
0.0
 30
0.0
 11
-4.216758614585663
 21
0.0
 31
0.0
  0
LINE
  5
89
330
3D
100
AcDbEntity
  8
0
 62
   252
370
     0
100
AcDbLine
 10
-3.373215500603369
 20
0.6472733968824259
 30
0.0
 11
-3.373215500603369
 21
0.6472733968824259
 31
0.0
  0
LINE
  5
8A
330
3D
100
AcDbEntity
  8
0
 62
   252
370
     0
100
AcDbLine
 10
-2.50638438654181
 20
1.312416304721729
 30
0.0
 11
-2.50638438654181
 21
1.312416304721729
 31
0.0
  0
LINE
  5
8B
330
3D
100
AcDbEntity
  8
0
 62
   252
370
     0
100
AcDbLine
 10
0.1215985531729058
 20
3.328938538313116
 30
0.0
 11
0.1215985531729058
 21
3.328938538313116
 31
0.0
  0
LINE
  5
8C
330
3D
100
AcDbEntity
  8
0
 62
   252
370
     0
100
AcDbLine
 10
2.435114244043813
 20
5.104161565031152
 30
0.0
 11
2.435114244043813
 21
5.104161565031152
 31
0.0
  0
LINE
  5
8D
330
3D
100
AcDbEntity
  8
0
 62
   252
370
     0
100
AcDbLine
 10
4.812500000000114
 20
6.928393816413184
 30
0.0
 11
4.812500000000114
 21
6.928393816413184
 31
0.0
  0
LINE
  5
8E
330
3D
100
AcDbEntity
  8
0
 62
   252
370
     0
100
AcDbLine
 10
-4.812499999999993
 20
1.160687900497783
 30
0.0
 11
-4.812499999999993
 21
1.160687900497783
 31
0.0
  0
LINE
  5
8F
330
3D
100
AcDbEntity
  8
0
 62
   252
370
     0
100
AcDbLine
 10
-3.645156196437888
 20
2.056422305220996
 30
0.0
 11
-3.645156196437888
 21
2.056422305220996
 31
0.0
  0
LINE
  5
90
330
3D
100
AcDbEntity
  8
0
 62
   252
370
     0
100
AcDbLine
 10
-2.445585109955357
 20
2.976885573878286
 30
0.0
 11
-2.445585109955357
 21
2.976885573878286
 31
0.0
  0
LINE
  5
91
330
3D
100
AcDbEntity
  8
0
 62
   252
370
     0
100
AcDbLine
 10
0.1823978297593598
 20
4.993407807469672
 30
0.0
 11
0.1823978297593598
 21
4.993407807469672
 31
0.0
  0
LINE
  5
92
330
3D
100
AcDbEntity
  8
0
 62
   252
370
     0
100
AcDbLine
 10
1.873828715547692
 20
6.291288374436218
 30
0.0
 11
1.873828715547692
 21
6.291288374436218
 31
0.0
  0
LINE
  5
93
330
3D
100
AcDbEntity
  8
0
 62
   252
370
     0
100
AcDbLine
 10
3.611955546035702
 20
7.625
 30
0.0
 11
3.611955546035702
 21
7.625
 31
0.0
  0
LINE
  5
94
330
3D
100
AcDbEntity
  8
0
 62
   252
370
     0
100
AcDbLine
 10
-4.812499999999993
 20
2.778504243879957
 30
0.0
 11
-4.812499999999993
 21
2.778504243879957
 31
0.0
  0
LINE
  5
95
330
3D
100
AcDbEntity
  8
0
 62
   252
370
     0
100
AcDbLine
 10
-3.615170471525356
 20
3.69724750458267
 30
0.0
 11
-3.615170471525356
 21
3.69724750458267
 31
0.0
  0
LINE
  5
96
330
3D
100
AcDbEntity
  8
0
 62
   252
370
     0
100
AcDbLine
 10
-2.384785833368904
 20
4.641354843034843
 30
0.0
 11
-2.384785833368904
 21
4.641354843034843
 31
0.0
  0
LINE
  5
97
330
3D
100
AcDbEntity
  8
0
 62
   252
370
     0
100
AcDbLine
 10
0.243197106345813
 20
6.657877076626231
 30
0.0
 11
0.243197106345813
 21
6.657877076626231
 31
0.0
  0
LINE
  5
98
330
3D
100
AcDbEntity
  8
0
 62
   252
370
     0
100
AcDbLine
 10
0.8648061792072969
 20
7.134854494205427
 30
0.0
 11
0.8648061792072969
 21
7.134854494205427
 31
0.0
  0
LINE
  5
99
330
3D
100
AcDbEntity
  8
0
 62
   252
370
     0
100
AcDbLine
 10
1.503576238742871
 20
7.625
 30
0.0
 11
1.503576238742871
 21
7.625
 31
0.0
  0
LINE
  5
9A
330
3D
100
AcDbEntity
  8
0
 62
   252
370
     0
100
AcDbLine
 10
-4.812499999999993
 20
4.396320587262132
 30
0.0
 11
-4.812499999999993
 21
4.396320587262132
 31
0.0
  0
LINE
  5
9B
330
3D
100
AcDbEntity
  8
0
 62
   252
370
     0
100
AcDbLine
 10
-3.585184746612823
 20
5.338072703944343
 30
0.0
 11
-3.585184746612823
 21
5.338072703944343
 31
0.0
  0
LINE
  5
9C
330
3D
100
AcDbEntity
  8
0
 62
   252
370
     0
100
AcDbLine
 10
-2.32398655678245
 20
6.3058241121914
 30
0.0
 11
-2.32398655678245
 21
6.3058241121914
 31
0.0
  0
LINE
  5
9D
330
3D
100
AcDbEntity
  8
0
 62
   252
370
     0
100
AcDbLine
 10
-4.812499999999993
 20
6.014136930644307
 30
0.0
 11
-4.812499999999993
 21
6.014136930644307
 31
0.0
  0
LINE
  5
9E
330
3D
100
AcDbEntity
  8
0
 62
   252
370
     0
100
AcDbLine
 10
-3.7771330628211
 20
6.808601924002788
 30
0.0
 11
-3.7771330628211
 21
6.808601924002788
 31
0.0
  0
LINE
  5
9F
330
3D
100
AcDbEntity
  8
0
 62
   252
370
     0
100
AcDbLine
 10
-2.71318237584279
 20
7.625
 30
0.0
 11
-2.71318237584279
 21
7.625
 31
0.0
  0
LINE
  5
A0
330
3D
100
AcDbEntity
  8
0
 62
   252
370
     0
100
AcDbLine
 10
-0.0000000000000009
 20
0.0
 30
0.0
 11
-0.0000000000000009
 21
0.0
 31
0.0
  0
LINE
  5
A1
330
3D
100
AcDbEntity
  8
0
 62
   252
370
     0
100
AcDbLine
 10
1.804097154072662
 20
0.2375138962239787
 30
0.0
 11
1.804097154072662
 21
0.2375138962239787
 31
0.0
  0
LINE
  5
A2
330
3D
100
AcDbEntity
  8
0
 62
   252
370
     0
100
AcDbLine
 10
4.812500000000114
 20
0.6335776446393568
 30
0.0
 11
4.812500000000114
 21
0.6335776446393568
 31
0.0
  0
LINE
  5
A3
330
3D
100
AcDbEntity
  8
0
 62
   252
370
     0
100
AcDbLine
 10
-4.812499999999993
 20
1.165312106555361
 30
0.0
 11
-4.812499999999993
 21
1.165312106555361
 31
0.0
  0
LINE
  5
A4
330
3D
100
AcDbEntity
  8
0
 62
   252
370
     0
100
AcDbLine
 10
-2.984542447502008
 20
1.405967283825464
 30
0.0
 11
-2.984542447502008
 21
1.405967283825464
 31
0.0
  0
LINE
  5
A5
330
3D
100
AcDbEntity
  8
0
 62
   252
370
     0
100
AcDbLine
 10
0.063648549726306
 20
1.807269241733986
 30
0.0
 11
0.063648549726306
 21
1.807269241733986
 31
0.0
  0
LINE
  5
A6
330
3D
100
AcDbEntity
  8
0
 62
   252
370
     0
100
AcDbLine
 10
1.315347687210742
 20
1.972058559411801
 30
0.0
 11
1.315347687210742
 21
1.972058559411801
 31
0.0
  0
LINE
  5
A7
330
3D
100
AcDbEntity
  8
0
 62
   252
370
     0
100
AcDbLine
 10
2.626350811337867
 20
2.144655395048016
 30
0.0
 11
2.626350811337867
 21
2.144655395048016
 31
0.0
  0
LINE
  5
A8
330
3D
100
AcDbEntity
  8
0
 62
   252
370
     0
100
AcDbLine
 10
4.812500000000114
 20
2.43246739583406
 30
0.0
 11
4.812500000000114
 21
2.43246739583406
 31
0.0
  0
LINE
  5
A9
330
3D
100
AcDbEntity
  8
0
 62
   252
370
     0
100
AcDbLine
 10
-3.672415331762513
 20
3.114296851784625
 30
0.0
 11
-3.672415331762513
 21
3.114296851784625
 31
0.0
  0
LINE
  5
AA
330
3D
100
AcDbEntity
  8
0
 62
   252
370
     0
100
AcDbLine
 10
-1.778755646538536
 20
3.363601878924923
 30
0.0
 11
-1.778755646538536
 21
3.363601878924923
 31
0.0
  0
LINE
  5
AB
330
3D
100
AcDbEntity
  8
0
 62
   252
370
     0
100
AcDbLine
 10
1.378996236937049
 20
3.779327801145787
 30
0.0
 11
1.378996236937049
 21
3.779327801145787
 31
0.0
  0
LINE
  5
AC
330
3D
100
AcDbEntity
  8
0
 62
   252
370
     0
100
AcDbLine
 10
2.630695374421485
 20
3.944117118823602
 30
0.0
 11
2.630695374421485
 21
3.944117118823602
 31
0.0
  0
LINE
  5
AD
330
3D
100
AcDbEntity
  8
0
 62
   252
370
     0
100
AcDbLine
 10
3.448604468603071
 20
4.051796893872052
 30
0.0
 11
3.448604468603071
 21
4.051796893872052
 31
0.0
  0
LINE
  5
AE
330
3D
100
AcDbEntity
  8
0
 62
   252
370
     0
100
AcDbLine
 10
4.812500000000114
 20
4.231357147028762
 30
0.0
 11
4.812500000000114
 21
4.231357147028762
 31
0.0
  0
LINE
  5
AF
330
3D
100
AcDbEntity
  8
0
 62
   252
370
     0
100
AcDbLine
 10
-4.812499999999993
 20
4.763091608944766
 30
0.0
 11
-4.812499999999993
 21
4.763091608944766
 31
0.0
  0
LINE
  5
B0
330
3D
100
AcDbEntity
  8
0
 62
   252
370
     0
100
AcDbLine
 10
-4.361247704355081
 20
4.822500100708464
 30
0.0
 11
-4.361247704355081
 21
4.822500100708464
 31
0.0
  0
LINE
  5
B1
330
3D
100
AcDbEntity
  8
0
 62
   252
370
     0
100
AcDbLine
 10
-3.608766782036208
 20
4.921566093518612
 30
0.0
 11
-3.608766782036208
 21
4.921566093518612
 31
0.0
  0
LINE
  5
B2
330
3D
100
AcDbEntity
  8
0
 62
   252
370
     0
100
AcDbLine
 10
-2.357067644551772
 20
5.086355411196426
 30
0.0
 11
-2.357067644551772
 21
5.086355411196426
 31
0.0
  0
LINE
  5
B3
330
3D
100
AcDbEntity
  8
0
 62
   252
370
     0
100
AcDbLine
 10
-0.463407959327794
 20
5.335660438336725
 30
0.0
 11
-0.463407959327794
 21
5.335660438336725
 31
0.0
  0
LINE
  5
B4
330
3D
100
AcDbEntity
  8
0
 62
   252
370
     0
100
AcDbLine
 10
2.694343924147792
 20
5.751386360557589
 30
0.0
 11
2.694343924147792
 21
5.751386360557589
 31
0.0
  0
LINE
  5
B5
330
3D
100
AcDbEntity
  8
0
 62
   252
370
     0
100
AcDbLine
 10
3.946043061632228
 20
5.916175678235405
 30
0.0
 11
3.946043061632228
 21
5.916175678235405
 31
0.0
  0
LINE
  5
B6
330
3D
100
AcDbEntity
  8
0
 62
   252
370
     0
100
AcDbLine
 10
4.270858125868275
 20
5.958938392696091
 30
0.0
 11
4.270858125868275
 21
5.958938392696091
 31
0.0
  0
LINE
  5
B7
330
3D
100
AcDbEntity
  8
0
 62
   252
370
     0
100
AcDbLine
 10
4.812500000000114
 20
6.030246898223464
 30
0.0
 11
4.812500000000114
 21
6.030246898223464
 31
0.0
  0
LINE
  5
B8
330
3D
100
AcDbEntity
  8
0
 62
   252
370
     0
100
AcDbLine
 10
-4.812499999999993
 20
6.561981360139468
 30
0.0
 11
-4.812499999999993
 21
6.561981360139468
 31
0.0
  0
LINE
  5
B9
330
3D
100
AcDbEntity
  8
0
 62
   252
370
     0
100
AcDbLine
 10
-3.868153674409541
 20
6.686306912490931
 30
0.0
 11
-3.868153674409541
 21
6.686306912490931
 31
0.0
  0
LINE
  5
BA
330
3D
100
AcDbEntity
  8
0
 62
   252
370
     0
100
AcDbLine
 10
-2.293419094825462
 20
6.893624652930412
 30
0.0
 11
-2.293419094825462
 21
6.893624652930412
 31
0.0
  0
LINE
  5
BB
330
3D
100
AcDbEntity
  8
0
 62
   252
370
     0
100
AcDbLine
 10
-1.041719957341027
 20
7.058413970608228
 30
0.0
 11
-1.041719957341027
 21
7.058413970608228
 31
0.0
  0
LINE
  5
BC
330
3D
100
AcDbEntity
  8
0
 62
   252
370
     0
100
AcDbLine
 10
0.5716201783338435
 20
7.270814228927813
 30
0.0
 11
0.5716201783338435
 21
7.270814228927813
 31
0.0
  0
LINE
  5
BD
330
3D
100
AcDbEntity
  8
0
 62
   252
370
     0
100
AcDbLine
 10
3.261928205624137
 20
7.625
 30
0.0
 11
3.261928205624137
 21
7.625
 31
0.0
  0
LINE
  5
BE
330
3D
100
AcDbEntity
  8
0
 62
   252
370
     0
100
AcDbLine
 10
-4.812499999999993
 20
0.7679296548213622
 30
0.0
 11
-4.812499999999993
 21
0.7679296548213622
 31
0.0
  0
LINE
  5
BF
330
3D
100
AcDbEntity
  8
0
 62
   252
370
     0
100
AcDbLine
 10
-4.675807500575828
 20
0.6808469285627811
 30
0.0
 11
-4.675807500575828
 21
0.6808469285627811
 31
0.0
  0
LINE
  5
C0
330
3D
100
AcDbEntity
  8
0
 62
   252
370
     0
100
AcDbLine
 10
-4.249326902372431
 20
0.4091488226360078
 30
0.0
 11
-4.249326902372431
 21
0.4091488226360078
 31
0.0
  0
LINE
  5
C1
330
3D
100
AcDbEntity
  8
0
 62
   252
370
     0
100
AcDbLine
 10
-2.34522382970925
 20
2.371376650558807
 30
0.0
 11
-2.34522382970925
 21
2.371376650558807
 31
0.0
  0
LINE
  5
C2
330
3D
100
AcDbEntity
  8
0
 62
   252
370
     0
100
AcDbLine
 10
-1.441749138860867
 20
1.795799793627058
 30
0.0
 11
-1.441749138860867
 21
1.795799793627058
 31
0.0
  0
LINE
  5
C3
330
3D
100
AcDbEntity
  8
0
 62
   252
370
     0
100
AcDbLine
 10
1.377091896586089
 20
0.0
 30
0.0
 11
1.377091896586089
 21
0.0
 31
0.0
  0
LINE
  5
C4
330
3D
100
AcDbEntity
  8
0
 62
   252
370
     0
100
AcDbLine
 10
-3.575447659418499
 20
4.742753301117614
 30
0.0
 11
-3.575447659418499
 21
4.742753301117614
 31
0.0
  0
LINE
  5
C5
330
3D
100
AcDbEntity
  8
0
 62
   252
370
     0
100
AcDbLine
 10
-2.521208352152392
 20
4.071128790684084
 30
0.0
 11
-2.521208352152392
 21
4.071128790684084
 31
0.0
  0
LINE
  5
C6
330
3D
100
AcDbEntity
  8
0
 62
   252
370
     0
100
AcDbLine
 10
0.7680182865178606
 20
1.97566031813147
 30
0.0
 11
0.7680182865178606
 21
1.97566031813147
 31
0.0
  0
LINE
  5
C7
330
3D
100
AcDbEntity
  8
0
 62
   252
370
     0
100
AcDbLine
 10
3.902345188890293
 20
1.566511495495462
 30
0.0
 11
3.902345188890293
 21
1.566511495495462
 31
0.0
  0
LINE
  5
C8
330
3D
100
AcDbEntity
  8
0
 62
   252
370
     0
100
AcDbLine
 10
4.123256550810153
 20
1.425775436541839
 30
0.0
 11
4.123256550810153
 21
1.425775436541839
 31
0.0
  0
LINE
  5
C9
330
3D
100
AcDbEntity
  8
0
 62
   252
370
     0
100
AcDbLine
 10
4.812500000000114
 20
0.9866789326065337
 30
0.0
 11
4.812500000000114
 21
0.9866789326065337
 31
0.0
  0
LINE
  5
CA
330
3D
100
AcDbEntity
  8
0
 62
   252
370
     0
100
AcDbLine
 10
-4.80567148912775
 20
7.11412995167642
 30
0.0
 11
-4.80567148912775
 21
7.11412995167642
 31
0.0
  0
LINE
  5
CB
330
3D
100
AcDbEntity
  8
0
 62
   252
370
     0
100
AcDbLine
 10
-3.751432181861643
 20
6.44250544124289
 30
0.0
 11
-3.751432181861643
 21
6.44250544124289
 31
0.0
  0
LINE
  5
CC
330
3D
100
AcDbEntity
  8
0
 62
   252
370
     0
100
AcDbLine
 10
-0.4622055431913896
 20
4.347036968690276
 30
0.0
 11
-0.4622055431913896
 21
4.347036968690276
 31
0.0
  0
LINE
  5
CD
330
3D
100
AcDbEntity
  8
0
 62
   252
370
     0
100
AcDbLine
 10
2.672121359181042
 20
3.937888146054271
 30
0.0
 11
2.672121359181042
 21
3.937888146054271
 31
0.0
  0
LINE
  5
CE
330
3D
100
AcDbEntity
  8
0
 62
   252
370
     0
100
AcDbLine
 10
3.191630738020622
 20
3.606924170585001
 30
0.0
 11
3.191630738020622
 21
3.606924170585001
 31
0.0
  0
LINE
  5
CF
330
3D
100
AcDbEntity
  8
0
 62
   252
370
     0
100
AcDbLine
 10
4.812500000000114
 20
2.574316567120876
 30
0.0
 11
4.812500000000114
 21
2.574316567120876
 31
0.0
  0
LINE
  5
D0
330
3D
100
AcDbEntity
  8
0
 62
   252
370
     0
100
AcDbLine
 10
-3.115484939176497
 20
7.625
 30
0.0
 11
-3.115484939176497
 21
7.625
 31
0.0
  0
LINE
  5
D1
330
3D
100
AcDbEntity
  8
0
 62
   252
370
     0
100
AcDbLine
 10
-2.770083102701775
 20
7.404954761953661
 30
0.0
 11
-2.770083102701775
 21
7.404954761953661
 31
0.0
  0
LINE
  5
D2
330
3D
100
AcDbEntity
  8
0
 62
   252
370
     0
100
AcDbLine
 10
-1.692429372900641
 20
6.718413619249085
 30
0.0
 11
-1.692429372900641
 21
6.718413619249085
 31
0.0
  0
LINE
  5
D3
330
3D
100
AcDbEntity
  8
0
 62
   252
370
     0
100
AcDbLine
 10
1.441897529471791
 20
6.309264796613077
 30
0.0
 11
1.441897529471791
 21
6.309264796613077
 31
0.0
  0
LINE
  5
D4
330
3D
100
AcDbEntity
  8
0
 62
   252
370
     0
100
AcDbLine
 10
2.260004925231093
 20
5.78807290462816
 30
0.0
 11
2.260004925231093
 21
5.78807290462816
 31
0.0
  0
LINE
  5
D5
330
3D
100
AcDbEntity
  8
0
 62
   252
370
     0
100
AcDbLine
 10
4.812500000000114
 20
4.161954201635217
 30
0.0
 11
4.812500000000114
 21
4.161954201635217
 31
0.0
  0
LINE
  5
D6
330
3D
100
AcDbEntity
  8
0
 62
   252
370
     0
100
AcDbLine
 10
1.868698853995679
 20
7.625
 30
0.0
 11
1.868698853995679
 21
7.625
 31
0.0
  0
LINE
  5
D7
330
3D
100
AcDbEntity
  8
0
 62
   252
370
     0
100
AcDbLine
 10
2.520747589845976
 20
7.209599141792655
 30
0.0
 11
2.520747589845976
 21
7.209599141792655
 31
0.0
  0
LINE
  5
D8
330
3D
100
AcDbEntity
  8
0
 62
   252
370
     0
100
AcDbLine
 10
4.555139645698904
 20
5.913548464185737
 30
0.0
 11
4.555139645698904
 21
5.913548464185737
 31
0.0
  0
LINE
  5
D9
330
3D
100
AcDbEntity
  8
0
 62
   252
370
     0
100
AcDbLine
 10
-4.812499999999993
 20
2.929968928920706
 30
0.0
 11
-4.812499999999993
 21
2.929968928920706
 31
0.0
  0
LINE
  5
DA
330
3D
100
AcDbEntity
  8
0
 62
   252
370
     0
100
AcDbLine
 10
-4.624360165068314
 20
2.757570533098316
 30
0.0
 11
-4.624360165068314
 21
2.757570533098316
 31
0.0
  0
LINE
  5
DB
330
3D
100
AcDbEntity
  8
0
 62
   252
370
     0
100
AcDbLine
 10
-4.324494212777206
 20
2.482794012987552
 30
0.0
 11
-4.324494212777206
 21
2.482794012987552
 31
0.0
  0
LINE
  5
DC
330
3D
100
AcDbEntity
  8
0
 62
   252
370
     0
100
AcDbLine
 10
-1.370519855485872
 20
2.948458469936171
 30
0.0
 11
-1.370519855485872
 21
2.948458469936171
 31
0.0
  0
LINE
  5
DD
330
3D
100
AcDbEntity
  8
0
 62
   252
370
     0
100
AcDbLine
 10
-0.1724441831694208
 20
1.850624382560723
 30
0.0
 11
-0.1724441831694208
 21
1.850624382560723
 31
0.0
  0
LINE
  5
DE
330
3D
100
AcDbEntity
  8
0
 62
   252
370
     0
100
AcDbLine
 10
1.7371041191688
 20
0.1008457448361626
 30
0.0
 11
1.7371041191688
 21
0.1008457448361626
 31
0.0
  0
LINE
  5
DF
330
3D
100
AcDbEntity
  8
0
 62
   252
370
     0
100
AcDbLine
 10
-4.812499999999993
 20
6.102452176703458
 30
0.0
 11
-4.812499999999993
 21
6.102452176703458
 31
0.0
  0
LINE
  5
E0
330
3D
100
AcDbEntity
  8
0
 62
   252
370
     0
100
AcDbLine
 10
-4.530106254075322
 20
5.843685983965126
 30
0.0
 11
-4.530106254075322
 21
5.843685983965126
 31
0.0
  0
LINE
  5
E1
330
3D
100
AcDbEntity
  8
0
 62
   252
370
     0
100
AcDbLine
 10
-4.080014068263077
 20
5.431252482923723
 30
0.0
 11
-4.080014068263077
 21
5.431252482923723
 31
0.0
  0
LINE
  5
E2
330
3D
100
AcDbEntity
  8
0
 62
   252
370
     0
100
AcDbLine
 10
4.691078476460134
 20
0.5665102017847848
 30
0.0
 11
4.691078476460134
 21
0.5665102017847848
 31
0.0
  0
LINE
  5
E3
330
3D
100
AcDbEntity
  8
0
 62
   252
370
     0
100
AcDbLine
 10
4.737889858607812
 20
0.5236154730240237
 30
0.0
 11
4.737889858607812
 21
0.5236154730240237
 31
0.0
  0
LINE
  5
E4
330
3D
100
AcDbEntity
  8
0
 62
   252
370
     0
100
AcDbLine
 10
4.812500000000114
 20
0.4552478745684105
 30
0.0
 11
4.812500000000114
 21
0.4552478745684105
 31
0.0
  0
LINE
  5
E5
330
3D
100
AcDbEntity
  8
0
 62
   252
370
     0
100
AcDbLine
 10
-1.126039710971744
 20
5.896916939872344
 30
0.0
 11
-1.126039710971744
 21
5.896916939872344
 31
0.0
  0
LINE
  5
E6
330
3D
100
AcDbEntity
  8
0
 62
   252
370
     0
100
AcDbLine
 10
0.0720359613447077
 20
4.799082852496896
 30
0.0
 11
0.0720359613447077
 21
4.799082852496896
 31
0.0
  0
LINE
  5
E7
330
3D
100
AcDbEntity
  8
0
 62
   252
370
     0
100
AcDbLine
 10
1.981584263682928
 20
3.049304214772337
 30
0.0
 11
1.981584263682928
 21
3.049304214772337
 31
0.0
  0
LINE
  5
E8
330
3D
100
AcDbEntity
  8
0
 62
   252
370
     0
100
AcDbLine
 10
0.4502464927623118
 20
7.625
 30
0.0
 11
0.4502464927623118
 21
7.625
 31
0.0
  0
LINE
  5
E9
330
3D
100
AcDbEntity
  8
0
 62
   252
370
     0
100
AcDbLine
 10
1.134873802983298
 20
6.997654653060813
 30
0.0
 11
1.134873802983298
 21
6.997654653060813
 31
0.0
  0
LINE
  5
EA
330
3D
100
AcDbEntity
  8
0
 62
   252
370
     0
100
AcDbLine
 10
2.226064408197055
 20
5.997762684708508
 30
0.0
 11
2.226064408197055
 21
5.997762684708508
 31
0.0
  0
LWPOLYLINE
  5
EB
330
3D
100
AcDbEntity
  8
0
 62
   252
370
    18
100
AcDbPolyline
 90
        4
 70
     1
 43
0.0
 10
-4.812499999999993
 20
0.0
 10
-4.812499999999993
 20
7.625
 10
4.812500000000121
 20
7.625
 10
4.812500000000114
 20
0.0000000000000568
  0
LINE
  5
EC
330
3D
100
AcDbEntity
  8
0
 62
     8
370
     0
100
AcDbLine
 10
-5.656854249492381
 20
0.0
 30
0.0
 11
-4.812499999999993
 21
0.8443542494923868
 31
0.0
  0
LINE
  5
ED
330
3D
100
AcDbEntity
  8
0
 62
     8
370
     0
100
AcDbLine
 10
-5.812499999999993
 20
1.258567811865483
 30
0.0
 11
-4.812499999999993
 21
2.258567811865483
 31
0.0
  0
LINE
  5
EE
330
3D
100
AcDbEntity
  8
0
 62
     8
370
     0
100
AcDbLine
 10
-5.812499999999993
 20
2.672781374238578
 30
0.0
 11
-4.812499999999993
 21
3.672781374238578
 31
0.0
  0
LINE
  5
EF
330
3D
100
AcDbEntity
  8
0
 62
     8
370
     0
100
AcDbLine
 10
-5.812499999999993
 20
4.086994936611672
 30
0.0
 11
-4.812499999999993
 21
5.086994936611672
 31
0.0
  0
LINE
  5
F0
330
3D
100
AcDbEntity
  8
0
 62
     8
370
     0
100
AcDbLine
 10
-5.812499999999993
 20
5.501208498984767
 30
0.0
 11
-4.812499999999993
 21
6.501208498984767
 31
0.0
  0
LINE
  5
F1
330
3D
100
AcDbEntity
  8
0
 62
     8
370
     0
100
AcDbLine
 10
-5.812499999999993
 20
6.915422061357863
 30
0.0
 11
-5.102922061357856
 21
7.625
 31
0.0
  0
LINE
  5
F2
330
3D
100
AcDbEntity
  8
0
 62
     8
370
     0
100
AcDbLine
 10
-5.65685424949238
 20
0.0
 30
0.0
 11
-5.812499999999993
 21
0.1556457505076134
 31
0.0
  0
LINE
  5
F3
330
3D
100
AcDbEntity
  8
0
 62
     8
370
     0
100
AcDbLine
 10
-4.812499999999993
 20
0.5698593128807081
 30
0.0
 11
-5.812499999999993
 21
1.569859312880708
 31
0.0
  0
LINE
  5
F4
330
3D
100
AcDbEntity
  8
0
 62
     8
370
     0
100
AcDbLine
 10
-4.812499999999993
 20
1.984072875253802
 30
0.0
 11
-5.812499999999993
 21
2.984072875253804
 31
0.0
  0
LINE
  5
F5
330
3D
100
AcDbEntity
  8
0
 62
     8
370
     0
100
AcDbLine
 10
-4.812499999999993
 20
3.398286437626898
 30
0.0
 11
-5.812499999999993
 21
4.398286437626899
 31
0.0
  0
LINE
  5
F6
330
3D
100
AcDbEntity
  8
0
 62
     8
370
     0
100
AcDbLine
 10
-5.812499999999993
 20
5.812499999999994
 30
0.0
 11
-4.812499999999993
 21
4.812499999999994
 31
0.0
  0
LINE
  5
F7
330
3D
100
AcDbEntity
  8
0
 62
     8
370
     0
100
AcDbLine
 10
-5.812499999999993
 20
7.226713562373089
 30
0.0
 11
-4.812499999999993
 21
6.226713562373089
 31
0.0
  0
LWPOLYLINE
  5
F8
330
3D
100
AcDbEntity
  8
0
 62
     8
370
    18
100
AcDbPolyline
 90
        4
 70
     1
 43
0.0
 10
-5.812499999999993
 20
0.0
 10
-5.812499999999993
 20
7.625
 10
-4.812499999999993
 20
7.625
 10
-4.812499999999993
 20
0.0
  0
ENDBLK
  5
FA
330
3D
100
AcDbEntity
  8
0
100
AcDbBlockEnd
  0
BLOCK
  5
4E
330
4B
100
AcDbEntity
  8
0
100
AcDbBlockBegin
  2
block9_0
 70
     0
 10
0.0
 20
0.0
 30
0.0
  3
block9_0
  1

  0
SOLID
  5
4C
330
4B
100
AcDbEntity
  8
0
 62
   254
100
AcDbTrace
 10
3.687499999999943
 20
0.0
 30
0.0
 11
-3.687499999999936
 21
0.0
 31
0.0
 12
3.687499999999943
 22
0.375
 32
0.0
 13
-3.687499999999936
 23
0.375
 33
0.0
  0
LWPOLYLINE
  5
4D
330
4B
100
AcDbEntity
  8
0
 62
   251
100
AcDbPolyline
 90
        4
 70
     1
 43
0.0
 10
-3.687499999999936
 20
0.0
 10
-3.687499999999936
 20
0.375
 10
3.687499999999943
 20
0.375
 10
3.687499999999943
 20
0.0
  0
ENDBLK
  5
4F
330
4B
100
AcDbEntity
  8
0
100
AcDbBlockEnd
  0
BLOCK
  5
1B2
330
FD
100
AcDbEntity
  8
0
100
AcDbBlockBegin
  2
block66
 70
     0
 10
0.0
 20
0.0
 30
0.0
  3
block66
  1

  0
LINE
  5
FE
330
FD
100
AcDbEntity
  8
0
 62
     8
370
     0
100
AcDbLine
 10
5.656854249492381
 20
0.0
 30
0.0
 11
5.8125
 21
0.1556457505076212
 31
0.0
  0
LINE
  5
FF
330
FD
100
AcDbEntity
  8
0
 62
     8
370
     0
100
AcDbLine
 10
4.812500000000114
 20
0.5698593128808277
 30
0.0
 11
5.8125
 21
1.569859312880714
 31
0.0
  0
LINE
  5
100
330
FD
100
AcDbEntity
  8
0
 62
     8
370
     0
100
AcDbLine
 10
4.812500000000114
 20
1.984072875253923
 30
0.0
 11
5.8125
 21
2.984072875253808
 31
0.0
  0
LINE
  5
101
330
FD
100
AcDbEntity
  8
0
 62
     8
370
     0
100
AcDbLine
 10
4.812500000000114
 20
3.398286437627018
 30
0.0
 11
5.8125
 21
4.398286437626904
 31
0.0
  0
LINE
  5
102
330
FD
100
AcDbEntity
  8
0
 62
     8
370
     0
100
AcDbLine
 10
4.812500000000114
 20
4.812500000000113
 30
0.0
 11
5.8125
 21
5.812499999999999
 31
0.0
  0
LINE
  5
103
330
FD
100
AcDbEntity
  8
0
 62
     8
370
     0
100
AcDbLine
 10
4.812500000000114
 20
6.226713562373208
 30
0.0
 11
5.8125
 21
7.226713562373093
 31
0.0
  0
LINE
  5
104
330
FD
100
AcDbEntity
  8
0
 62
     8
370
     0
100
AcDbLine
 10
4.812500000000114
 20
0.8443542494922666
 30
0.0
 11
5.656854249492381
 21
0.0
 31
0.0
  0
LINE
  5
105
330
FD
100
AcDbEntity
  8
0
 62
     8
370
     0
100
AcDbLine
 10
4.812500000000114
 20
2.258567811865361
 30
0.0
 11
5.8125
 21
1.258567811865476
 31
0.0
  0
LINE
  5
106
330
FD
100
AcDbEntity
  8
0
 62
     8
370
     0
100
AcDbLine
 10
5.8125
 20
2.67278137423857
 30
0.0
 11
4.812500000000114
 21
3.672781374238457
 31
0.0
  0
LINE
  5
107
330
FD
100
AcDbEntity
  8
0
 62
     8
370
     0
100
AcDbLine
 10
4.812500000000114
 20
5.086994936611551
 30
0.0
 11
5.8125
 21
4.086994936611664
 31
0.0
  0
LINE
  5
108
330
FD
100
AcDbEntity
  8
0
 62
     8
370
     0
100
AcDbLine
 10
4.812500000000114
 20
6.501208498984647
 30
0.0
 11
5.8125
 21
5.50120849898476
 31
0.0
  0
LINE
  5
109
330
FD
100
AcDbEntity
  8
0
 62
     8
370
     0
100
AcDbLine
 10
5.102922061357856
 20
7.625
 30
0.0
 11
5.8125
 21
6.915422061357856
 31
0.0
  0
LWPOLYLINE
  5
10A
330
FD
100
AcDbEntity
  8
0
 62
     8
370
    18
100
AcDbPolyline
 90
        4
 70
     1
 43
0.0
 10
4.812500000000114
 20
0.0
 10
4.812500000000114
 20
7.625
 10
5.8125
 20
7.625
 10
5.8125
 20
0.000000000000056
  0
LINE
  5
10B
330
FD
100
AcDbEntity
  8
0
 62
   252
370
     0
100
AcDbLine
 10
0.0
 20
0.0
 30
0.0
 11
0.2410453536324522
 21
0.2872666661696167
 31
0.0
  0
LINE
  5
10C
330
FD
100
AcDbEntity
  8
0
 62
   252
370
     0
100
AcDbLine
 10
2.892544243589427
 20
3.447199994035401
 30
0.0
 11
3.13358959722188
 21
3.734466660205018
 31
0.0
  0
LINE
  5
10D
330
FD
100
AcDbEntity
  8
0
 62
   252
370
     0
100
AcDbLine
 10
-3.586300913003767
 20
0.3137606749129755
 30
0.0
 11
-3.345255559371314
 21
0.6010273410825921
 31
0.0
  0
LINE
  5
10E
330
FD
100
AcDbEntity
  8
0
 62
   252
370
     0
100
AcDbLine
 10
-0.69375666941434
 20
3.760960668948376
 30
0.0
 11
-0.4527113157818876
 21
4.048227335117993
 31
0.0
  0
LINE
  5
10F
330
FD
100
AcDbEntity
  8
0
 62
   252
370
     0
100
AcDbLine
 10
2.198787574175086
 20
7.208160662983777
 30
0.0
 11
2.439832927807538
 21
7.495427329153393
 31
0.0
  0
LINE
  5
110
330
FD
100
AcDbEntity
  8
0
 62
   252
370
     0
100
AcDbLine
 10
-4.280057582418107
 20
4.074721343861352
 30
0.0
 11
-4.039012228785654
 21
4.361988010030968
 31
0.0
  0
LINE
  5
111
330
FD
100
AcDbEntity
  8
0
 62
   252
370
     0
100
AcDbLine
 10
-1.387513338828679
 20
7.521921337896752
 30
0.0
 11
-1.301020071475597
 21
7.625
 31
0.0
  0
LINE
  5
112
330
FD
100
AcDbEntity
  8
0
 62
   252
370
     0
100
AcDbLine
 10
-3.586300913130283
 20
0.3137606738915694
 30
0.0
 11
-3.28744250370276
 21
0.287613951067272
 31
0.0
  0
LINE
  5
113
330
FD
100
AcDbEntity
  8
0
 62
   252
370
     0
100
AcDbLine
 10
2.892544245065283
 20
3.44719999460849
 30
0.0
 11
3.191402654492806
 21
3.421053271784192
 31
0.0
  0
LINE
  5
114
330
FD
100
AcDbEntity
  8
0
 62
   252
370
     0
100
AcDbLine
 10
-0.6937566680650007
 20
3.760960668500059
 30
0.0
 11
-0.3948982586374772
 21
3.734813945675762
 31
0.0
  0
LINE
  5
115
330
FD
100
AcDbEntity
  8
0
 62
   252
370
     0
100
AcDbLine
 10
-4.280057581195285
 20
4.074721342391628
 30
0.0
 11
-3.981199171767761
 21
4.048574619567331
 31
0.0
  0
LINE
  5
116
330
FD
100
AcDbEntity
  8
0
 62
   252
370
     0
100
AcDbLine
 10
2.198787577000283
 20
7.208160663108549
 30
0.0
 11
2.497645986427807
 21
7.182013940284251
 31
0.0
  0
LINE
  5
117
330
FD
100
AcDbEntity
  8
0
 62
   252
370
     0
100
AcDbLine
 10
-1.38751333613
 20
7.521921337000117
 30
0.0
 11
-1.088654926702477
 21
7.49577461417582
 31
0.0
  0
LINE
  5
118
330
FD
100
AcDbEntity
  8
0
 62
   252
370
     0
100
AcDbLine
 10
-3.287442239569775
 20
0.287616791109642
 30
0.0
 11
-3.345255048823567
 21
0.6010302155462591
 31
0.0
  0
LINE
  5
119
330
FD
100
AcDbEntity
  8
0
 62
   252
370
     0
100
AcDbLine
 10
-3.981195970569441
 20
4.048577992524052
 30
0.0
 11
-4.039008779823234
 21
4.361991416960668
 31
0.0
  0
LINE
  5
11A
330
FD
100
AcDbEntity
  8
0
 62
   252
370
     0
100
AcDbLine
 10
0.2940353322503233
 20
0.0
 30
0.0
 11
0.241045590746208
 21
0.2872667244366174
 31
0.0
  0
LINE
  5
11B
330
FD
100
AcDbEntity
  8
0
 62
   252
370
     0
100
AcDbLine
 10
-0.3948953309996661
 20
3.73481450141441
 30
0.0
 11
-0.4527081402534585
 21
4.048227925851027
 31
0.0
  0
LINE
  5
11C
330
FD
100
AcDbEntity
  8
0
 62
   252
370
     0
100
AcDbLine
 10
-1.088649061999333
 20
7.49577570282882
 30
0.0
 11
-1.112486010454052
 21
7.625
 31
0.0
  0
LINE
  5
11D
330
FD
100
AcDbEntity
  8
0
 62
   252
370
     0
100
AcDbLine
 10
3.191405308570108
 20
3.421051010304768
 30
0.0
 11
3.133592499316316
 21
3.734464434741385
 31
0.0
  0
LINE
  5
11E
330
FD
100
AcDbEntity
  8
0
 62
   252
370
     0
100
AcDbLine
 10
2.497651577570442
 20
7.182012211719178
 30
0.0
 11
2.439838768316649
 21
7.495425636155795
 31
0.0
  0
LINE
  5
11F
330
FD
100
AcDbEntity
  8
0
 62
   252
370
     0
100
AcDbLine
 10
0.0000000000000003
 20
0.9999999999999992
 30
0.0
 11
0.3894424771560434
 21
1.405882750294422
 31
0.0
  0
LINE
  5
120
330
FD
100
AcDbEntity
  8
0
 62
   252
370
     0
100
AcDbLine
 10
4.673309725872516
 20
5.870593003533076
 30
0.0
 11
4.812500000000114
 21
6.015659180416775
 31
0.0
  0
LINE
  5
121
330
FD
100
AcDbEntity
  8
0
 62
   252
370
     0
100
AcDbLine
 10
-0.6628955172557065
 20
6.698188075178168
 30
0.0
 11
-0.2734530400996639
 21
7.10407082547259
 31
0.0
  0
LINE
  5
122
330
FD
100
AcDbEntity
  8
0
 62
   252
370
     0
100
AcDbLine
 10
0.4446837249999995
 20
0.9310334649999998
 30
0.0
 11
0.3894428026678862
 21
1.405882514473589
 31
0.0
  0
LINE
  5
123
330
FD
100
AcDbEntity
  8
0
 62
   252
370
     0
100
AcDbLine
 10
-0.2182072459197084
 20
6.629221224310095
 30
0.0
 11
-0.2734481682518217
 21
7.104070273783684
 31
0.0
  0
LINE
  5
124
330
FD
100
AcDbEntity
  8
0
 62
   252
370
     0
100
AcDbLine
 10
0.0
 20
1.0
 30
0.0
 11
0.444683770284962
 21
0.9310337441559164
 31
0.0
  0
LINE
  5
125
330
FD
100
AcDbEntity
  8
0
 62
   252
370
     0
100
AcDbLine
 10
4.673309725668135
 20
5.870593004626624
 30
0.0
 11
4.812500000000114
 21
5.849005906756072
 31
0.0
  0
LINE
  5
126
330
FD
100
AcDbEntity
  8
0
 62
   252
370
     0
100
AcDbLine
 10
-0.6628955177514024
 20
6.698188074755631
 30
0.0
 11
-0.2182117474664405
 21
6.629221818911548
 31
0.0
  0
LINE
  5
127
330
FD
100
AcDbEntity
  8
0
 62
   252
370
     0
100
AcDbLine
 10
0.5
 20
0.75
 30
0.0
 11
0.8500926599364508
 21
0.8843879810794876
 31
0.0
  0
LINE
  5
128
330
FD
100
AcDbEntity
  8
0
 62
   252
370
     0
100
AcDbLine
 10
4.701111919237409
 20
2.362655772953852
 30
0.0
 11
4.812500000000114
 21
2.405413651090274
 31
0.0
  0
LINE
  5
129
330
FD
100
AcDbEntity
  8
0
 62
   252
370
     0
100
AcDbLine
 10
-2.484535260592309
 20
2.763094453326694
 30
0.0
 11
-2.134442600655858
 21
2.897482434406181
 31
0.0
  0
LINE
  5
12A
330
FD
100
AcDbEntity
  8
0
 62
   252
370
     0
100
AcDbLine
 10
1.716576658645099
 20
4.375750226280545
 30
0.0
 11
2.066669318581551
 21
4.510138207360032
 31
0.0
  0
LINE
  5
12B
330
FD
100
AcDbEntity
  8
0
 62
   252
370
     0
100
AcDbLine
 10
-1.26795860194721
 20
6.388844679607239
 30
0.0
 11
-0.9178659420107587
 21
6.523232660686727
 31
0.0
  0
LINE
  5
12C
330
FD
100
AcDbEntity
  8
0
 62
   252
370
     0
100
AcDbLine
 10
0.4999999999999998
 20
0.7499999999999989
 30
0.0
 11
0.748711271766512
 21
0.5822421289587748
 31
0.0
  0
LINE
  5
12D
330
FD
100
AcDbEntity
  8
0
 62
   252
370
     0
100
AcDbLine
 10
-2.484535261198148
 20
2.763094452494689
 30
0.0
 11
-2.235823989431637
 21
2.595336581453465
 31
0.0
  0
LINE
  5
12E
330
FD
100
AcDbEntity
  8
0
 62
   252
370
     0
100
AcDbLine
 10
4.70111192080606
 20
2.362655772739574
 30
0.0
 11
4.812500000000114
 21
2.287523564648466
 31
0.0
  0
LINE
  5
12F
330
FD
100
AcDbEntity
  8
0
 62
   252
370
     0
100
AcDbLine
 10
1.716576659607911
 20
4.375750225234264
 30
0.0
 11
1.965287931374424
 21
4.207992354193039
 31
0.0
  0
LINE
  5
130
330
FD
100
AcDbEntity
  8
0
 62
   252
370
     0
100
AcDbLine
 10
-1.267958601590238
 20
6.388844677728954
 30
0.0
 11
-1.019247329823725
 21
6.22108680668773
 31
0.0
  0
LINE
  5
131
330
FD
100
AcDbEntity
  8
0
 62
   252
370
     0
100
AcDbLine
 10
0.748711165
 20
0.5822419700000003
 30
0.0
 11
0.8500927859827628
 21
0.8843877335940147
 31
0.0
  0
LINE
  5
132
330
FD
100
AcDbEntity
  8
0
 62
   252
370
     0
100
AcDbLine
 10
1.965290651785137
 20
4.20799123741413
 30
0.0
 11
2.066672272767899
 21
4.510137001008144
 31
0.0
  0
LINE
  5
133
330
FD
100
AcDbEntity
  8
0
 62
   252
370
     0
100
AcDbLine
 10
-2.235822491122313
 20
2.595338753864368
 30
0.0
 11
-2.13444087013955
 21
2.897484517458381
 31
0.0
  0
LINE
  5
134
330
FD
100
AcDbEntity
  8
0
 62
   252
370
     0
100
AcDbLine
 10
-1.019243004337177
 20
6.221088021278497
 30
0.0
 11
-0.9178613833544144
 21
6.523233784872511
 31
0.0
  0
LINE
  5
135
330
FD
100
AcDbEntity
  8
0
 62
   252
370
     0
100
AcDbLine
 10
4.216758614585661
 20
0.0
 30
0.0
 11
4.216758614585661
 21
0.0
 31
0.0
  0
LINE
  5
136
330
FD
100
AcDbEntity
  8
0
 62
   252
370
     0
100
AcDbLine
 10
4.510573579253001
 20
0.2254521518613343
 30
0.0
 11
4.510573579253001
 21
0.2254521518613343
 31
0.0
  0
LINE
  5
137
330
FD
100
AcDbEntity
  8
0
 62
   252
370
     0
100
AcDbLine
 10
4.812500000000114
 20
0.4571284428844846
 30
0.0
 11
4.812500000000114
 21
0.4571284428844846
 31
0.0
  0
LINE
  5
138
330
FD
100
AcDbEntity
  8
0
 62
   252
370
     0
100
AcDbLine
 10
2.108379307292831
 20
0.0
 30
0.0
 11
2.108379307292831
 21
0.0
 31
0.0
  0
LINE
  5
139
330
FD
100
AcDbEntity
  8
0
 62
   252
370
     0
100
AcDbLine
 10
3.442030359974487
 20
1.023346445269185
 30
0.0
 11
3.442030359974487
 21
1.023346445269185
 31
0.0
  0
LINE
  5
13A
330
FD
100
AcDbEntity
  8
0
 62
   252
370
     0
100
AcDbLine
 10
4.812500000000114
 20
2.074944786266659
 30
0.0
 11
4.812500000000114
 21
2.074944786266659
 31
0.0
  0
LINE
  5
13B
330
FD
100
AcDbEntity
  8
0
 62
   252
370
     0
100
AcDbLine
 10
0.0
 20
0.0
 30
0.0
 11
0.0
 21
0.0
 31
0.0
  0
LINE
  5
13C
330
FD
100
AcDbEntity
  8
0
 62
   252
370
     0
100
AcDbLine
 10
2.373487140695971
 20
1.821240738677035
 30
0.0
 11
2.373487140695971
 21
1.821240738677035
 31
0.0
  0
LINE
  5
13D
330
FD
100
AcDbEntity
  8
0
 62
   252
370
     0
100
AcDbLine
 10
4.812500000000114
 20
3.692761129648834
 30
0.0
 11
4.812500000000114
 21
3.692761129648834
 31
0.0
  0
LINE
  5
13E
330
FD
100
AcDbEntity
  8
0
 62
   252
370
     0
100
AcDbLine
 10
0.0607992765864531
 20
1.664469269156558
 30
0.0
 11
0.0607992765864531
 21
1.664469269156558
 31
0.0
  0
LINE
  5
13F
330
FD
100
AcDbEntity
  8
0
 62
   252
370
     0
100
AcDbLine
 10
2.404300692369893
 20
3.462701151854095
 30
0.0
 11
2.404300692369893
 21
3.462701151854095
 31
0.0
  0
LINE
  5
140
330
FD
100
AcDbEntity
  8
0
 62
   252
370
     0
100
AcDbLine
 10
4.812500000000114
 20
5.31057747303101
 30
0.0
 11
4.812500000000114
 21
5.31057747303101
 31
0.0
  0
LINE
  5
141
330
FD
100
AcDbEntity
  8
0
 62
   252
370
     0
100
AcDbLine
 10
-4.216758614585661
 20
0.0
 30
0.0
 11
-4.216758614585661
 21
0.0
 31
0.0
  0
LINE
  5
142
330
FD
100
AcDbEntity
  8
0
 62
   252
370
     0
100
AcDbLine
 10
-3.373215500603368
 20
0.6472733968824252
 30
0.0
 11
-3.373215500603368
 21
0.6472733968824252
 31
0.0
  0
LINE
  5
143
330
FD
100
AcDbEntity
  8
0
 62
   252
370
     0
100
AcDbLine
 10
-2.50638438654181
 20
1.312416304721727
 30
0.0
 11
-2.50638438654181
 21
1.312416304721727
 31
0.0
  0
LINE
  5
144
330
FD
100
AcDbEntity
  8
0
 62
   252
370
     0
100
AcDbLine
 10
0.1215985531729062
 20
3.328938538313114
 30
0.0
 11
0.1215985531729062
 21
3.328938538313114
 31
0.0
  0
LINE
  5
145
330
FD
100
AcDbEntity
  8
0
 62
   252
370
     0
100
AcDbLine
 10
2.435114244043813
 20
5.10416156503115
 30
0.0
 11
2.435114244043813
 21
5.10416156503115
 31
0.0
  0
LINE
  5
146
330
FD
100
AcDbEntity
  8
0
 62
   252
370
     0
100
AcDbLine
 10
4.812500000000114
 20
6.928393816413182
 30
0.0
 11
4.812500000000114
 21
6.928393816413182
 31
0.0
  0
LINE
  5
147
330
FD
100
AcDbEntity
  8
0
 62
   252
370
     0
100
AcDbLine
 10
-4.8125
 20
1.160687900497777
 30
0.0
 11
-4.8125
 21
1.160687900497777
 31
0.0
  0
LINE
  5
148
330
FD
100
AcDbEntity
  8
0
 62
   252
370
     0
100
AcDbLine
 10
-3.645156196437891
 20
2.056422305220993
 30
0.0
 11
-3.645156196437891
 21
2.056422305220993
 31
0.0
  0
LINE
  5
149
330
FD
100
AcDbEntity
  8
0
 62
   252
370
     0
100
AcDbLine
 10
-2.445585109955356
 20
2.976885573878286
 30
0.0
 11
-2.445585109955356
 21
2.976885573878286
 31
0.0
  0
LINE
  5
14A
330
FD
100
AcDbEntity
  8
0
 62
   252
370
     0
100
AcDbLine
 10
0.1823978297593603
 20
4.993407807469673
 30
0.0
 11
0.1823978297593603
 21
4.993407807469673
 31
0.0
  0
LINE
  5
14B
330
FD
100
AcDbEntity
  8
0
 62
   252
370
     0
100
AcDbLine
 10
1.873828715547692
 20
6.291288374436219
 30
0.0
 11
1.873828715547692
 21
6.291288374436219
 31
0.0
  0
LINE
  5
14C
330
FD
100
AcDbEntity
  8
0
 62
   252
370
     0
100
AcDbLine
 10
3.611955546035702
 20
7.625
 30
0.0
 11
3.611955546035702
 21
7.625
 31
0.0
  0
LINE
  5
14D
330
FD
100
AcDbEntity
  8
0
 62
   252
370
     0
100
AcDbLine
 10
-4.8125
 20
2.778504243879952
 30
0.0
 11
-4.8125
 21
2.778504243879952
 31
0.0
  0
LINE
  5
14E
330
FD
100
AcDbEntity
  8
0
 62
   252
370
     0
100
AcDbLine
 10
-3.615170471525359
 20
3.697247504582667
 30
0.0
 11
-3.615170471525359
 21
3.697247504582667
 31
0.0
  0
LINE
  5
14F
330
FD
100
AcDbEntity
  8
0
 62
   252
370
     0
100
AcDbLine
 10
-2.384785833368904
 20
4.641354843034843
 30
0.0
 11
-2.384785833368904
 21
4.641354843034843
 31
0.0
  0
LINE
  5
150
330
FD
100
AcDbEntity
  8
0
 62
   252
370
     0
100
AcDbLine
 10
0.243197106345813
 20
6.657877076626231
 30
0.0
 11
0.243197106345813
 21
6.657877076626231
 31
0.0
  0
LINE
  5
151
330
FD
100
AcDbEntity
  8
0
 62
   252
370
     0
100
AcDbLine
 10
0.8648061792072964
 20
7.134854494205427
 30
0.0
 11
0.8648061792072964
 21
7.134854494205427
 31
0.0
  0
LINE
  5
152
330
FD
100
AcDbEntity
  8
0
 62
   252
370
     0
100
AcDbLine
 10
1.50357623874287
 20
7.625
 30
0.0
 11
1.50357623874287
 21
7.625
 31
0.0
  0
LINE
  5
153
330
FD
100
AcDbEntity
  8
0
 62
   252
370
     0
100
AcDbLine
 10
-4.8125
 20
4.396320587262126
 30
0.0
 11
-4.8125
 21
4.396320587262126
 31
0.0
  0
LINE
  5
154
330
FD
100
AcDbEntity
  8
0
 62
   252
370
     0
100
AcDbLine
 10
-3.585184746612827
 20
5.338072703944341
 30
0.0
 11
-3.585184746612827
 21
5.338072703944341
 31
0.0
  0
LINE
  5
155
330
FD
100
AcDbEntity
  8
0
 62
   252
370
     0
100
AcDbLine
 10
-2.32398655678245
 20
6.3058241121914
 30
0.0
 11
-2.32398655678245
 21
6.3058241121914
 31
0.0
  0
LINE
  5
156
330
FD
100
AcDbEntity
  8
0
 62
   252
370
     0
100
AcDbLine
 10
-4.8125
 20
6.014136930644302
 30
0.0
 11
-4.8125
 21
6.014136930644302
 31
0.0
  0
LINE
  5
157
330
FD
100
AcDbEntity
  8
0
 62
   252
370
     0
100
AcDbLine
 10
-3.777133062821104
 20
6.808601924002785
 30
0.0
 11
-3.777133062821104
 21
6.808601924002785
 31
0.0
  0
LINE
  5
158
330
FD
100
AcDbEntity
  8
0
 62
   252
370
     0
100
AcDbLine
 10
-2.71318237584279
 20
7.625
 30
0.0
 11
-2.71318237584279
 21
7.625
 31
0.0
  0
LINE
  5
159
330
FD
100
AcDbEntity
  8
0
 62
   252
370
     0
100
AcDbLine
 10
0.0
 20
0.0
 30
0.0
 11
0.0
 21
0.0
 31
0.0
  0
LINE
  5
15A
330
FD
100
AcDbEntity
  8
0
 62
   252
370
     0
100
AcDbLine
 10
1.804097154072663
 20
0.2375138962239787
 30
0.0
 11
1.804097154072663
 21
0.2375138962239787
 31
0.0
  0
LINE
  5
15B
330
FD
100
AcDbEntity
  8
0
 62
   252
370
     0
100
AcDbLine
 10
4.812500000000114
 20
0.6335776446393568
 30
0.0
 11
4.812500000000114
 21
0.6335776446393568
 31
0.0
  0
LINE
  5
15C
330
FD
100
AcDbEntity
  8
0
 62
   252
370
     0
100
AcDbLine
 10
-4.8125
 20
1.16531210655536
 30
0.0
 11
-4.8125
 21
1.16531210655536
 31
0.0
  0
LINE
  5
15D
330
FD
100
AcDbEntity
  8
0
 62
   252
370
     0
100
AcDbLine
 10
-2.984542447502012
 20
1.405967283825463
 30
0.0
 11
-2.984542447502012
 21
1.405967283825463
 31
0.0
  0
LINE
  5
15E
330
FD
100
AcDbEntity
  8
0
 62
   252
370
     0
100
AcDbLine
 10
0.0636485497263077
 20
1.807269241733986
 30
0.0
 11
0.0636485497263077
 21
1.807269241733986
 31
0.0
  0
LINE
  5
15F
330
FD
100
AcDbEntity
  8
0
 62
   252
370
     0
100
AcDbLine
 10
1.315347687210744
 20
1.972058559411801
 30
0.0
 11
1.315347687210744
 21
1.972058559411801
 31
0.0
  0
LINE
  5
160
330
FD
100
AcDbEntity
  8
0
 62
   252
370
     0
100
AcDbLine
 10
2.626350811337868
 20
2.144655395048016
 30
0.0
 11
2.626350811337868
 21
2.144655395048016
 31
0.0
  0
LINE
  5
161
330
FD
100
AcDbEntity
  8
0
 62
   252
370
     0
100
AcDbLine
 10
4.812500000000114
 20
2.43246739583406
 30
0.0
 11
4.812500000000114
 21
2.43246739583406
 31
0.0
  0
LINE
  5
162
330
FD
100
AcDbEntity
  8
0
 62
   252
370
     0
100
AcDbLine
 10
-3.672415331762514
 20
3.114296851784625
 30
0.0
 11
-3.672415331762514
 21
3.114296851784625
 31
0.0
  0
LINE
  5
163
330
FD
100
AcDbEntity
  8
0
 62
   252
370
     0
100
AcDbLine
 10
-1.778755646538536
 20
3.363601878924924
 30
0.0
 11
-1.778755646538536
 21
3.363601878924924
 31
0.0
  0
LINE
  5
164
330
FD
100
AcDbEntity
  8
0
 62
   252
370
     0
100
AcDbLine
 10
1.37899623693705
 20
3.779327801145787
 30
0.0
 11
1.37899623693705
 21
3.779327801145787
 31
0.0
  0
LINE
  5
165
330
FD
100
AcDbEntity
  8
0
 62
   252
370
     0
100
AcDbLine
 10
2.630695374421486
 20
3.944117118823602
 30
0.0
 11
2.630695374421486
 21
3.944117118823602
 31
0.0
  0
LINE
  5
166
330
FD
100
AcDbEntity
  8
0
 62
   252
370
     0
100
AcDbLine
 10
3.448604468603071
 20
4.051796893872052
 30
0.0
 11
3.448604468603071
 21
4.051796893872052
 31
0.0
  0
LINE
  5
167
330
FD
100
AcDbEntity
  8
0
 62
   252
370
     0
100
AcDbLine
 10
4.812500000000114
 20
4.231357147028762
 30
0.0
 11
4.812500000000114
 21
4.231357147028762
 31
0.0
  0
LINE
  5
168
330
FD
100
AcDbEntity
  8
0
 62
   252
370
     0
100
AcDbLine
 10
-4.8125
 20
4.763091608944765
 30
0.0
 11
-4.8125
 21
4.763091608944765
 31
0.0
  0
LINE
  5
169
330
FD
100
AcDbEntity
  8
0
 62
   252
370
     0
100
AcDbLine
 10
-4.361247704355085
 20
4.822500100708464
 30
0.0
 11
-4.361247704355085
 21
4.822500100708464
 31
0.0
  0
LINE
  5
16A
330
FD
100
AcDbEntity
  8
0
 62
   252
370
     0
100
AcDbLine
 10
-3.608766782036207
 20
4.921566093518612
 30
0.0
 11
-3.608766782036207
 21
4.921566093518612
 31
0.0
  0
LINE
  5
16B
330
FD
100
AcDbEntity
  8
0
 62
   252
370
     0
100
AcDbLine
 10
-2.357067644551772
 20
5.086355411196426
 30
0.0
 11
-2.357067644551772
 21
5.086355411196426
 31
0.0
  0
LINE
  5
16C
330
FD
100
AcDbEntity
  8
0
 62
   252
370
     0
100
AcDbLine
 10
-0.4634079593277942
 20
5.335660438336724
 30
0.0
 11
-0.4634079593277942
 21
5.335660438336724
 31
0.0
  0
LINE
  5
16D
330
FD
100
AcDbEntity
  8
0
 62
   252
370
     0
100
AcDbLine
 10
2.694343924147791
 20
5.751386360557588
 30
0.0
 11
2.694343924147791
 21
5.751386360557588
 31
0.0
  0
LINE
  5
16E
330
FD
100
AcDbEntity
  8
0
 62
   252
370
     0
100
AcDbLine
 10
3.946043061632227
 20
5.916175678235403
 30
0.0
 11
3.946043061632227
 21
5.916175678235403
 31
0.0
  0
LINE
  5
16F
330
FD
100
AcDbEntity
  8
0
 62
   252
370
     0
100
AcDbLine
 10
4.270858125868275
 20
5.958938392696089
 30
0.0
 11
4.270858125868275
 21
5.958938392696089
 31
0.0
  0
LINE
  5
170
330
FD
100
AcDbEntity
  8
0
 62
   252
370
     0
100
AcDbLine
 10
4.812500000000114
 20
6.030246898223464
 30
0.0
 11
4.812500000000114
 21
6.030246898223464
 31
0.0
  0
LINE
  5
171
330
FD
100
AcDbEntity
  8
0
 62
   252
370
     0
100
AcDbLine
 10
-4.8125
 20
6.561981360139467
 30
0.0
 11
-4.8125
 21
6.561981360139467
 31
0.0
  0
LINE
  5
172
330
FD
100
AcDbEntity
  8
0
 62
   252
370
     0
100
AcDbLine
 10
-3.868153674409545
 20
6.686306912490931
 30
0.0
 11
-3.868153674409545
 21
6.686306912490931
 31
0.0
  0
LINE
  5
173
330
FD
100
AcDbEntity
  8
0
 62
   252
370
     0
100
AcDbLine
 10
-2.293419094825462
 20
6.893624652930413
 30
0.0
 11
-2.293419094825462
 21
6.893624652930413
 31
0.0
  0
LINE
  5
174
330
FD
100
AcDbEntity
  8
0
 62
   252
370
     0
100
AcDbLine
 10
-1.041719957341027
 20
7.058413970608228
 30
0.0
 11
-1.041719957341027
 21
7.058413970608228
 31
0.0
  0
LINE
  5
175
330
FD
100
AcDbEntity
  8
0
 62
   252
370
     0
100
AcDbLine
 10
0.5716201783338428
 20
7.270814228927813
 30
0.0
 11
0.5716201783338428
 21
7.270814228927813
 31
0.0
  0
LINE
  5
176
330
FD
100
AcDbEntity
  8
0
 62
   252
370
     0
100
AcDbLine
 10
3.261928205624136
 20
7.625
 30
0.0
 11
3.261928205624136
 21
7.625
 31
0.0
  0
LINE
  5
177
330
FD
100
AcDbEntity
  8
0
 62
   252
370
     0
100
AcDbLine
 10
-4.8125
 20
0.7679296548213667
 30
0.0
 11
-4.8125
 21
0.7679296548213667
 31
0.0
  0
LINE
  5
178
330
FD
100
AcDbEntity
  8
0
 62
   252
370
     0
100
AcDbLine
 10
-4.675807500575833
 20
0.6808469285627844
 30
0.0
 11
-4.675807500575833
 21
0.6808469285627844
 31
0.0
  0
LINE
  5
179
330
FD
100
AcDbEntity
  8
0
 62
   252
370
     0
100
AcDbLine
 10
-4.249326902372431
 20
0.4091488226360078
 30
0.0
 11
-4.249326902372431
 21
0.4091488226360078
 31
0.0
  0
LINE
  5
17A
330
FD
100
AcDbEntity
  8
0
 62
   252
370
     0
100
AcDbLine
 10
-2.34522382970925
 20
2.371376650558807
 30
0.0
 11
-2.34522382970925
 21
2.371376650558807
 31
0.0
  0
LINE
  5
17B
330
FD
100
AcDbEntity
  8
0
 62
   252
370
     0
100
AcDbLine
 10
-1.441749138860867
 20
1.795799793627058
 30
0.0
 11
-1.441749138860867
 21
1.795799793627058
 31
0.0
  0
LINE
  5
17C
330
FD
100
AcDbEntity
  8
0
 62
   252
370
     0
100
AcDbLine
 10
1.37709189658609
 20
0.0
 30
0.0
 11
1.37709189658609
 21
0.0
 31
0.0
  0
LINE
  5
17D
330
FD
100
AcDbEntity
  8
0
 62
   252
370
     0
100
AcDbLine
 10
-3.575447659418502
 20
4.742753301117615
 30
0.0
 11
-3.575447659418502
 21
4.742753301117615
 31
0.0
  0
LINE
  5
17E
330
FD
100
AcDbEntity
  8
0
 62
   252
370
     0
100
AcDbLine
 10
-2.521208352152394
 20
4.071128790684085
 30
0.0
 11
-2.521208352152394
 21
4.071128790684085
 31
0.0
  0
LINE
  5
17F
330
FD
100
AcDbEntity
  8
0
 62
   252
370
     0
100
AcDbLine
 10
0.7680182865178606
 20
1.97566031813147
 30
0.0
 11
0.7680182865178606
 21
1.97566031813147
 31
0.0
  0
LINE
  5
180
330
FD
100
AcDbEntity
  8
0
 62
   252
370
     0
100
AcDbLine
 10
3.902345188890293
 20
1.566511495495461
 30
0.0
 11
3.902345188890293
 21
1.566511495495461
 31
0.0
  0
LINE
  5
181
330
FD
100
AcDbEntity
  8
0
 62
   252
370
     0
100
AcDbLine
 10
4.123256550810152
 20
1.425775436541837
 30
0.0
 11
4.123256550810152
 21
1.425775436541837
 31
0.0
  0
LINE
  5
182
330
FD
100
AcDbEntity
  8
0
 62
   252
370
     0
100
AcDbLine
 10
4.812500000000114
 20
0.9866789326065319
 30
0.0
 11
4.812500000000114
 21
0.9866789326065319
 31
0.0
  0
LINE
  5
183
330
FD
100
AcDbEntity
  8
0
 62
   252
370
     0
100
AcDbLine
 10
-4.805671489127748
 20
7.114129951676421
 30
0.0
 11
-4.805671489127748
 21
7.114129951676421
 31
0.0
  0
LINE
  5
184
330
FD
100
AcDbEntity
  8
0
 62
   252
370
     0
100
AcDbLine
 10
-3.751432181861642
 20
6.442505441242891
 30
0.0
 11
-3.751432181861642
 21
6.442505441242891
 31
0.0
  0
LINE
  5
185
330
FD
100
AcDbEntity
  8
0
 62
   252
370
     0
100
AcDbLine
 10
-0.4622055431913887
 20
4.347036968690277
 30
0.0
 11
-0.4622055431913887
 21
4.347036968690277
 31
0.0
  0
LINE
  5
186
330
FD
100
AcDbEntity
  8
0
 62
   252
370
     0
100
AcDbLine
 10
2.672121359181042
 20
3.93788814605427
 30
0.0
 11
2.672121359181042
 21
3.93788814605427
 31
0.0
  0
LINE
  5
187
330
FD
100
AcDbEntity
  8
0
 62
   252
370
     0
100
AcDbLine
 10
3.191630738020623
 20
3.606924170585
 30
0.0
 11
3.191630738020623
 21
3.606924170585
 31
0.0
  0
LINE
  5
188
330
FD
100
AcDbEntity
  8
0
 62
   252
370
     0
100
AcDbLine
 10
4.812500000000114
 20
2.574316567120875
 30
0.0
 11
4.812500000000114
 21
2.574316567120875
 31
0.0
  0
LINE
  5
189
330
FD
100
AcDbEntity
  8
0
 62
   252
370
     0
100
AcDbLine
 10
-3.115484939176497
 20
7.625
 30
0.0
 11
-3.115484939176497
 21
7.625
 31
0.0
  0
LINE
  5
18A
330
FD
100
AcDbEntity
  8
0
 62
   252
370
     0
100
AcDbLine
 10
-2.770083102701774
 20
7.404954761953661
 30
0.0
 11
-2.770083102701774
 21
7.404954761953661
 31
0.0
  0
LINE
  5
18B
330
FD
100
AcDbEntity
  8
0
 62
   252
370
     0
100
AcDbLine
 10
-1.692429372900639
 20
6.718413619249084
 30
0.0
 11
-1.692429372900639
 21
6.718413619249084
 31
0.0
  0
LINE
  5
18C
330
FD
100
AcDbEntity
  8
0
 62
   252
370
     0
100
AcDbLine
 10
1.441897529471791
 20
6.309264796613078
 30
0.0
 11
1.441897529471791
 21
6.309264796613078
 31
0.0
  0
LINE
  5
18D
330
FD
100
AcDbEntity
  8
0
 62
   252
370
     0
100
AcDbLine
 10
2.260004925231093
 20
5.78807290462816
 30
0.0
 11
2.260004925231093
 21
5.78807290462816
 31
0.0
  0
LINE
  5
18E
330
FD
100
AcDbEntity
  8
0
 62
   252
370
     0
100
AcDbLine
 10
4.812500000000114
 20
4.161954201635217
 30
0.0
 11
4.812500000000114
 21
4.161954201635217
 31
0.0
  0
LINE
  5
18F
330
FD
100
AcDbEntity
  8
0
 62
   252
370
     0
100
AcDbLine
 10
1.868698853995678
 20
7.625
 30
0.0
 11
1.868698853995678
 21
7.625
 31
0.0
  0
LINE
  5
190
330
FD
100
AcDbEntity
  8
0
 62
   252
370
     0
100
AcDbLine
 10
2.520747589845975
 20
7.209599141792655
 30
0.0
 11
2.520747589845975
 21
7.209599141792655
 31
0.0
  0
LINE
  5
191
330
FD
100
AcDbEntity
  8
0
 62
   252
370
     0
100
AcDbLine
 10
4.555139645698903
 20
5.913548464185737
 30
0.0
 11
4.555139645698903
 21
5.913548464185737
 31
0.0
  0
LINE
  5
192
330
FD
100
AcDbEntity
  8
0
 62
   252
370
     0
100
AcDbLine
 10
-4.8125
 20
2.929968928920712
 30
0.0
 11
-4.8125
 21
2.929968928920712
 31
0.0
  0
LINE
  5
193
330
FD
100
AcDbEntity
  8
0
 62
   252
370
     0
100
AcDbLine
 10
-4.624360165068317
 20
2.757570533098319
 30
0.0
 11
-4.624360165068317
 21
2.757570533098319
 31
0.0
  0
LINE
  5
194
330
FD
100
AcDbEntity
  8
0
 62
   252
370
     0
100
AcDbLine
 10
-4.324494212777205
 20
2.482794012987552
 30
0.0
 11
-4.324494212777205
 21
2.482794012987552
 31
0.0
  0
LINE
  5
195
330
FD
100
AcDbEntity
  8
0
 62
   252
370
     0
100
AcDbLine
 10
-1.370519855485873
 20
2.948458469936171
 30
0.0
 11
-1.370519855485873
 21
2.948458469936171
 31
0.0
  0
LINE
  5
196
330
FD
100
AcDbEntity
  8
0
 62
   252
370
     0
100
AcDbLine
 10
-0.1724441831694212
 20
1.850624382560723
 30
0.0
 11
-0.1724441831694212
 21
1.850624382560723
 31
0.0
  0
LINE
  5
197
330
FD
100
AcDbEntity
  8
0
 62
   252
370
     0
100
AcDbLine
 10
1.7371041191688
 20
0.1008457448361626
 30
0.0
 11
1.7371041191688
 21
0.1008457448361626
 31
0.0
  0
LINE
  5
198
330
FD
100
AcDbEntity
  8
0
 62
   252
370
     0
100
AcDbLine
 10
-4.8125
 20
6.102452176703464
 30
0.0
 11
-4.8125
 21
6.102452176703464
 31
0.0
  0
LINE
  5
199
330
FD
100
AcDbEntity
  8
0
 62
   252
370
     0
100
AcDbLine
 10
-4.530106254075327
 20
5.84368598396513
 30
0.0
 11
-4.530106254075327
 21
5.84368598396513
 31
0.0
  0
LINE
  5
19A
330
FD
100
AcDbEntity
  8
0
 62
   252
370
     0
100
AcDbLine
 10
-4.080014068263078
 20
5.431252482923723
 30
0.0
 11
-4.080014068263078
 21
5.431252482923723
 31
0.0
  0
LINE
  5
19B
330
FD
100
AcDbEntity
  8
0
 62
   252
370
     0
100
AcDbLine
 10
4.691078476460134
 20
0.5665102017847848
 30
0.0
 11
4.691078476460134
 21
0.5665102017847848
 31
0.0
  0
LINE
  5
19C
330
FD
100
AcDbEntity
  8
0
 62
   252
370
     0
100
AcDbLine
 10
4.737889858607812
 20
0.5236154730240237
 30
0.0
 11
4.737889858607812
 21
0.5236154730240237
 31
0.0
  0
LINE
  5
19D
330
FD
100
AcDbEntity
  8
0
 62
   252
370
     0
100
AcDbLine
 10
4.812500000000114
 20
0.4552478745684105
 30
0.0
 11
4.812500000000114
 21
0.4552478745684105
 31
0.0
  0
LINE
  5
19E
330
FD
100
AcDbEntity
  8
0
 62
   252
370
     0
100
AcDbLine
 10
-1.126039710971744
 20
5.896916939872344
 30
0.0
 11
-1.126039710971744
 21
5.896916939872344
 31
0.0
  0
LINE
  5
19F
330
FD
100
AcDbEntity
  8
0
 62
   252
370
     0
100
AcDbLine
 10
0.0720359613447077
 20
4.799082852496896
 30
0.0
 11
0.0720359613447077
 21
4.799082852496896
 31
0.0
  0
LINE
  5
1A0
330
FD
100
AcDbEntity
  8
0
 62
   252
370
     0
100
AcDbLine
 10
1.981584263682928
 20
3.049304214772337
 30
0.0
 11
1.981584263682928
 21
3.049304214772337
 31
0.0
  0
LINE
  5
1A1
330
FD
100
AcDbEntity
  8
0
 62
   252
370
     0
100
AcDbLine
 10
0.4502464927623118
 20
7.625
 30
0.0
 11
0.4502464927623118
 21
7.625
 31
0.0
  0
LINE
  5
1A2
330
FD
100
AcDbEntity
  8
0
 62
   252
370
     0
100
AcDbLine
 10
1.134873802983298
 20
6.997654653060813
 30
0.0
 11
1.134873802983298
 21
6.997654653060813
 31
0.0
  0
LINE
  5
1A3
330
FD
100
AcDbEntity
  8
0
 62
   252
370
     0
100
AcDbLine
 10
2.226064408197055
 20
5.997762684708508
 30
0.0
 11
2.226064408197055
 21
5.997762684708508
 31
0.0
  0
LWPOLYLINE
  5
1A4
330
FD
100
AcDbEntity
  8
0
 62
   252
370
    18
100
AcDbPolyline
 90
        4
 70
     1
 43
0.0
 10
-4.812499999999993
 20
0.0
 10
-4.8125
 20
7.625
 10
4.812500000000114
 20
7.625
 10
4.812500000000114
 20
0.0000000000000568
  0
LINE
  5
1A5
330
FD
100
AcDbEntity
  8
0
 62
     8
370
     0
100
AcDbLine
 10
-5.656854249492381
 20
0.0
 30
0.0
 11
-4.8125
 21
0.8443542494923806
 31
0.0
  0
LINE
  5
1A6
330
FD
100
AcDbEntity
  8
0
 62
     8
370
     0
100
AcDbLine
 10
-5.8125
 20
1.258567811865476
 30
0.0
 11
-4.8125
 21
2.258567811865476
 31
0.0
  0
LINE
  5
1A7
330
FD
100
AcDbEntity
  8
0
 62
     8
370
     0
100
AcDbLine
 10
-5.8125
 20
2.67278137423857
 30
0.0
 11
-4.8125
 21
3.67278137423857
 31
0.0
  0
LINE
  5
1A8
330
FD
100
AcDbEntity
  8
0
 62
     8
370
     0
100
AcDbLine
 10
-5.8125
 20
4.086994936611665
 30
0.0
 11
-4.8125
 21
5.086994936611664
 31
0.0
  0
LINE
  5
1A9
330
FD
100
AcDbEntity
  8
0
 62
     8
370
     0
100
AcDbLine
 10
-5.8125
 20
5.501208498984761
 30
0.0
 11
-4.8125
 21
6.50120849898476
 31
0.0
  0
LINE
  5
1AA
330
FD
100
AcDbEntity
  8
0
 62
     8
370
     0
100
AcDbLine
 10
-5.8125
 20
6.915422061357856
 30
0.0
 11
-5.102922061357856
 21
7.625
 31
0.0
  0
LINE
  5
1AB
330
FD
100
AcDbEntity
  8
0
 62
     8
370
     0
100
AcDbLine
 10
-5.8125
 20
0.1556457505076203
 30
0.0
 11
-5.65685424949238
 21
0.0
 31
0.0
  0
LINE
  5
1AC
330
FD
100
AcDbEntity
  8
0
 62
     8
370
     0
100
AcDbLine
 10
-5.8125
 20
1.569859312880715
 30
0.0
 11
-4.8125
 21
0.5698593128807152
 31
0.0
  0
LINE
  5
1AD
330
FD
100
AcDbEntity
  8
0
 62
     8
370
     0
100
AcDbLine
 10
-4.8125
 20
1.98407287525381
 30
0.0
 11
-5.8125
 21
2.984072875253811
 31
0.0
  0
LINE
  5
1AE
330
FD
100
AcDbEntity
  8
0
 62
     8
370
     0
100
AcDbLine
 10
-4.8125
 20
3.398286437626905
 30
0.0
 11
-5.8125
 21
4.398286437626906
 31
0.0
  0
LINE
  5
1AF
330
FD
100
AcDbEntity
  8
0
 62
     8
370
     0
100
AcDbLine
 10
-5.8125
 20
5.812500000000001
 30
0.0
 11
-4.8125
 21
4.812500000000002
 31
0.0
  0
LINE
  5
1B0
330
FD
100
AcDbEntity
  8
0
 62
     8
370
     0
100
AcDbLine
 10
-5.8125
 20
7.226713562373095
 30
0.0
 11
-4.8125
 21
6.226713562373096
 31
0.0
  0
LWPOLYLINE
  5
1B1
330
FD
100
AcDbEntity
  8
0
 62
     8
370
    18
100
AcDbPolyline
 90
        4
 70
     1
 43
0.0
 10
-5.8125
 20
0.0
 10
-5.8125
 20
7.625
 10
-4.8125
 20
7.625
 10
-4.8125
 20
0.0
  0
ENDBLK
  5
1B3
330
FD
100
AcDbEntity
  8
0
100
AcDbBlockEnd
  0
BLOCK
  5
1DC
330
1B6
100
AcDbEntity
  8
0
100
AcDbBlockBegin
  2
block50
 70
     0
 10
0.0
 20
0.0
 30
0.0
  3
block50
  1

  0
LINE
  5
1B7
330
1B6
100
AcDbEntity
  8
0
 62
   253
370
    13
100
AcDbLine
 10
0.7141814915677333
 20
0.0070747103811857
 30
0.0
 11
1.007635041805372
 21
0.3005282606188251
 31
0.0
1001
CHIEFARC-LNWT
1070
    12
  0
LINE
  5
1B8
330
1B6
100
AcDbEntity
  8
0
 62
   253
370
    13
100
AcDbLine
 10
0.382635041805365
 20
0.382635041805365
 30
0.0
 11
1.007635041805371
 21
1.007635041805371
 31
0.0
1001
CHIEFARC-LNWT
1070
    12
  0
LINE
  5
1B9
330
1B6
100
AcDbEntity
  8
0
 62
   253
370
    13
100
AcDbLine
 10
0.4363503323820297
 20
1.143457113568577
 30
0.0
 11
1.007635041805371
 21
1.714741822991917
 31
0.0
1001
CHIEFARC-LNWT
1070
    12
  0
LINE
  5
1BA
330
1B6
100
AcDbEntity
  8
0
 62
   253
370
    13
100
AcDbLine
 10
0.501533773579745
 20
1.91574733595284
 30
0.0
 11
1.00763504180537
 21
2.421848604178465
 31
0.0
1001
CHIEFARC-LNWT
1070
    12
  0
LINE
  5
1BB
330
1B6
100
AcDbEntity
  8
0
 62
   253
370
    13
100
AcDbLine
 10
0.5667172147774604
 20
2.688037558337102
 30
0.0
 11
1.007635041805369
 21
3.128955385365012
 31
0.0
1001
CHIEFARC-LNWT
1070
    12
  0
LINE
  5
1BC
330
1B6
100
AcDbEntity
  8
0
 62
   253
370
    13
100
AcDbLine
 10
0.6319006559751758
 20
3.460327780721365
 30
0.0
 11
1.007635041805369
 21
3.836062166551558
 31
0.0
1001
CHIEFARC-LNWT
1070
    12
  0
LINE
  5
1BD
330
1B6
100
AcDbEntity
  8
0
 62
   253
370
    13
100
AcDbLine
 10
0.6970840971728911
 20
4.232618003105628
 30
0.0
 11
1.007635041805368
 21
4.543168947738105
 31
0.0
1001
CHIEFARC-LNWT
1070
    12
  0
LINE
  5
1BE
330
1B6
100
AcDbEntity
  8
0
 62
   253
370
    13
100
AcDbLine
 10
0.7622675383706065
 20
5.004908225489891
 30
0.0
 11
1.007635041805367
 21
5.250275728924652
 31
0.0
1001
CHIEFARC-LNWT
1070
    12
  0
LINE
  5
1BF
330
1B6
100
AcDbEntity
  8
0
 62
   253
370
    13
100
AcDbLine
 10
0.8274509795683217
 20
5.777198447874152
 30
0.0
 11
1.007635041805367
 21
5.957382510111199
 31
0.0
1001
CHIEFARC-LNWT
1070
    12
  0
LINE
  5
1C0
330
1B6
100
AcDbEntity
  8
0
 62
   253
370
    13
100
AcDbLine
 10
0.8926344207660372
 20
6.549488670258416
 30
0.0
 11
1.007635041805366
 21
6.664489291297746
 31
0.0
1001
CHIEFARC-LNWT
1070
    12
  0
LINE
  5
1C1
330
1B6
100
AcDbEntity
  8
0
 62
   253
370
    13
100
AcDbLine
 10
0.9578178619637524
 20
7.321778892642677
 30
0.0
 11
1.007635041805365
 21
7.371596072484293
 31
0.0
1001
CHIEFARC-LNWT
1070
    12
  0
LINE
  5
1C2
330
1B6
100
AcDbEntity
  8
0
 62
   253
370
    13
100
AcDbLine
 10
-0.2000658024927531
 20
0.5070409786937944
 30
0.0
 11
0.4363503323820297
 21
1.143457113568576
 31
0.0
1001
CHIEFARC-LNWT
1070
    12
  0
LINE
  5
1C3
330
1B6
100
AcDbEntity
  8
0
 62
   253
370
    13
100
AcDbLine
 10
-0.311202186101993
 20
1.103011376271102
 30
0.0
 11
0.5015337735797452
 21
1.915747335952841
 31
0.0
1001
CHIEFARC-LNWT
1070
    12
  0
LINE
  5
1C4
330
1B6
100
AcDbEntity
  8
0
 62
   253
370
    13
100
AcDbLine
 10
-0.3768149852950617
 20
1.744505358264581
 30
0.0
 11
0.5667172147774604
 21
2.688037558337102
 31
0.0
1001
CHIEFARC-LNWT
1070
    12
  0
LINE
  5
1C5
330
1B6
100
AcDbEntity
  8
0
 62
   253
370
    13
100
AcDbLine
 10
-0.4424277844881305
 20
2.38599934025806
 30
0.0
 11
0.6319006559751759
 21
3.460327780721367
 31
0.0
1001
CHIEFARC-LNWT
1070
    12
  0
LINE
  5
1C6
330
1B6
100
AcDbEntity
  8
0
 62
   253
370
    13
100
AcDbLine
 10
-0.5080405836811992
 20
3.027493322251539
 30
0.0
 11
0.6970840971728911
 21
4.232618003105628
 31
0.0
1001
CHIEFARC-LNWT
1070
    12
  0
LINE
  5
1C7
330
1B6
100
AcDbEntity
  8
0
 62
   253
370
    13
100
AcDbLine
 10
-0.5736533828742679
 20
3.668987304245017
 30
0.0
 11
0.7622675383706065
 21
5.00490822548989
 31
0.0
1001
CHIEFARC-LNWT
1070
    12
  0
LINE
  5
1C8
330
1B6
100
AcDbEntity
  8
0
 62
   253
370
    13
100
AcDbLine
 10
-0.6392661820673365
 20
4.310481286238494
 30
0.0
 11
0.8274509795683217
 21
5.777198447874152
 31
0.0
1001
CHIEFARC-LNWT
1070
    12
  0
LINE
  5
1C9
330
1B6
100
AcDbEntity
  8
0
 62
   253
370
    13
100
AcDbLine
 10
-0.7048789812604055
 20
4.951975268231975
 30
0.0
 11
0.8926344207660372
 21
6.549488670258416
 31
0.0
1001
CHIEFARC-LNWT
1070
    12
  0
LINE
  5
1CA
330
1B6
100
AcDbEntity
  8
0
 62
   253
370
    13
100
AcDbLine
 10
-0.7704917804534741
 20
5.593469250225453
 30
0.0
 11
0.9578178619637525
 21
7.321778892642679
 31
0.0
1001
CHIEFARC-LNWT
1070
    12
  0
LINE
  5
1CB
330
1B6
100
AcDbEntity
  8
0
 62
   253
370
    13
100
AcDbLine
 10
-0.8361045796465428
 20
6.234963232218932
 30
0.0
 11
0.840942590367777
 21
7.91201040223325
 31
0.0
1001
CHIEFARC-LNWT
1070
    12
  0
LINE
  5
1CC
330
1B6
100
AcDbEntity
  8
0
 62
   253
370
    13
100
AcDbLine
 10
-0.9017173788396116
 20
6.87645721421241
 30
0.0
 11
0.1338358091812275
 21
7.91201040223325
 31
0.0
1001
CHIEFARC-LNWT
1070
    12
  0
LINE
  5
1CD
330
1B6
100
AcDbEntity
  8
0
 62
   253
370
    13
100
AcDbLine
 10
-0.9673301780326803
 20
7.517951196205889
 30
0.0
 11
-0.5732709720053207
 21
7.91201040223325
 31
0.0
1001
CHIEFARC-LNWT
1070
    12
  0
LINE
  5
1CE
330
1B6
100
AcDbEntity
  8
0
 62
   253
370
    13
100
AcDbLine
 10
-0.7000658024927533
 20
0.0070409786937944
 30
0.0
 11
-0.2501235249876612
 21
0.4569832561988822
 31
0.0
1001
CHIEFARC-LNWT
1070
    12
  0
LINE
  5
1CF
330
1B6
100
AcDbEntity
  8
0
 62
   253
370
    13
100
AcDbLine
 10
-1.007635041805379
 20
0.4065785205677159
 30
0.0
 11
-0.311202186101993
 21
1.103011376271102
 31
0.0
1001
CHIEFARC-LNWT
1070
    12
  0
LINE
  5
1D0
330
1B6
100
AcDbEntity
  8
0
 62
   253
370
    13
100
AcDbLine
 10
-1.007635041805379
 20
1.113685301754263
 30
0.0
 11
-0.3768149852950619
 21
1.744505358264583
 31
0.0
1001
CHIEFARC-LNWT
1070
    12
  0
LINE
  5
1D1
330
1B6
100
AcDbEntity
  8
0
 62
   253
370
    13
100
AcDbLine
 10
-1.007635041805379
 20
1.820792082940811
 30
0.0
 11
-0.4424277844881305
 21
2.385999340258059
 31
0.0
1001
CHIEFARC-LNWT
1070
    12
  0
LINE
  5
1D2
330
1B6
100
AcDbEntity
  8
0
 62
   253
370
    13
100
AcDbLine
 10
-1.007635041805379
 20
2.527898864127359
 30
0.0
 11
-0.5080405836811992
 21
3.027493322251538
 31
0.0
1001
CHIEFARC-LNWT
1070
    12
  0
LINE
  5
1D3
330
1B6
100
AcDbEntity
  8
0
 62
   253
370
    13
100
AcDbLine
 10
-1.007635041805379
 20
3.235005645313906
 30
0.0
 11
-0.573653382874268
 21
3.668987304245018
 31
0.0
1001
CHIEFARC-LNWT
1070
    12
  0
LINE
  5
1D4
330
1B6
100
AcDbEntity
  8
0
 62
   253
370
    13
100
AcDbLine
 10
-1.007635041805379
 20
3.942112426500453
 30
0.0
 11
-0.6392661820673367
 21
4.310481286238495
 31
0.0
1001
CHIEFARC-LNWT
1070
    12
  0
LINE
  5
1D5
330
1B6
100
AcDbEntity
  8
0
 62
   253
370
    13
100
AcDbLine
 10
-1.007635041805379
 20
4.649219207687
 30
0.0
 11
-0.7048789812604053
 21
4.951975268231973
 31
0.0
1001
CHIEFARC-LNWT
1070
    12
  0
LINE
  5
1D6
330
1B6
100
AcDbEntity
  8
0
 62
   253
370
    13
100
AcDbLine
 10
-1.007635041805379
 20
5.356325988873549
 30
0.0
 11
-0.7704917804534742
 21
5.593469250225453
 31
0.0
1001
CHIEFARC-LNWT
1070
    12
  0
LINE
  5
1D7
330
1B6
100
AcDbEntity
  8
0
 62
   253
370
    13
100
AcDbLine
 10
-1.007635041805379
 20
6.063432770060095
 30
0.0
 11
-0.8361045796465428
 21
6.234963232218932
 31
0.0
1001
CHIEFARC-LNWT
1070
    12
  0
LINE
  5
1D8
330
1B6
100
AcDbEntity
  8
0
 62
   253
370
    13
100
AcDbLine
 10
-1.007635041805379
 20
6.770539551246643
 30
0.0
 11
-0.9017173788396117
 21
6.876457214212412
 31
0.0
1001
CHIEFARC-LNWT
1070
    12
  0
LINE
  5
1D9
330
1B6
100
AcDbEntity
  8
0
 62
   253
370
    13
100
AcDbLine
 10
-1.007635041805379
 20
7.47764633243319
 30
0.0
 11
-0.9673301780326804
 21
7.51795119620589
 31
0.0
1001
CHIEFARC-LNWT
1070
    12
  0
LWPOLYLINE
  5
1DA
330
1B6
100
AcDbEntity
  8
0
 62
     7
370
    18
100
AcDbPolyline
 90
        8
 70
     1
 43
0.0
 10
-1.007635041805379
 20
7.91201040223325
 10
1.007635041805365
 20
7.91201040223325
 10
1.007635041805372
 20
0.0071045687703872
 10
0.3826350418053651
 20
0.0070409761056744
 10
0.3826350418053651
 20
0.5070409786937944
 10
-0.2502455955198997
 20
0.5070409786937944
 10
-0.249026297815624
 20
0.0070409786937945
 10
-1.007635041805379
 20
0.0070409786937945
  0
LINE
  5
1DB
330
1B6
100
AcDbEntity
  8
0
100
AcDbLine
 10
-0.7407661534417684
 20
0.0
 30
0.0
 11
-0.7407661534417684
 21
7.931056814277213
 31
0.0
  0
ENDBLK
  5
1DD
330
1B6
100
AcDbEntity
  8
0
100
AcDbBlockEnd
  0
BLOCK
  5
211
330
1E9
100
AcDbEntity
  8
0
100
AcDbBlockBegin
  2
block63
 70
     0
 10
0.0
 20
0.0
 30
0.0
  3
block63
  1

  0
LINE
  5
1EA
330
1E9
100
AcDbEntity
  8
0
 62
   253
370
    13
100
AcDbLine
 10
0.707106781186645
 20
0.0000000000000975
 30
0.0
 11
0.9606007420048179
 21
0.2534939608182718
 31
0.0
1001
CHIEFARC-LNWT
1070
    12
  0
LINE
  5
1EB
330
1E9
100
AcDbEntity
  8
0
 62
   253
370
    13
100
AcDbLine
 10
0.0000000000000568
 20
0.0000000000000568
 30
0.0
 11
0.888158488303185
 21
0.8881584883031852
 31
0.0
1001
CHIEFARC-LNWT
1070
    12
  0
LINE
  5
1EC
330
1E9
100
AcDbEntity
  8
0
 62
   253
370
    13
100
AcDbLine
 10
-0.7071067811865315
 20
0.0000000000000162
 30
0.0
 11
0.8157162346015516
 21
1.5228230157881
 31
0.0
1001
CHIEFARC-LNWT
1070
    12
  0
LINE
  5
1ED
330
1E9
100
AcDbEntity
  8
0
 62
   253
370
    13
100
AcDbLine
 10
-0.9895351995428996
 20
0.4246783628301955
 30
0.0
 11
0.7432739808999185
 21
2.157487543273016
 31
0.0
1001
CHIEFARC-LNWT
1070
    12
  0
LINE
  5
1EE
330
1E9
100
AcDbEntity
  8
0
 62
   253
370
    13
100
AcDbLine
 10
-0.9895351995428996
 20
1.131785144016743
 30
0.0
 11
0.6708317271982854
 21
2.792152070757927
 31
0.0
1001
CHIEFARC-LNWT
1070
    12
  0
LINE
  5
1EF
330
1E9
100
AcDbEntity
  8
0
 62
   253
370
    13
100
AcDbLine
 10
-0.9895351995428996
 20
1.83889192520329
 30
0.0
 11
0.5983894734966521
 21
3.426816598242845
 31
0.0
1001
CHIEFARC-LNWT
1070
    12
  0
LINE
  5
1F0
330
1E9
100
AcDbEntity
  8
0
 62
   253
370
    13
100
AcDbLine
 10
-0.9895351995428996
 20
2.545998706389838
 30
0.0
 11
0.5259472197950191
 21
4.061481125727757
 31
0.0
1001
CHIEFARC-LNWT
1070
    12
  0
LINE
  5
1F1
330
1E9
100
AcDbEntity
  8
0
 62
   253
370
    13
100
AcDbLine
 10
-0.9895351995428996
 20
3.253105487576386
 30
0.0
 11
0.4535049660933861
 21
4.696145653212671
 31
0.0
1001
CHIEFARC-LNWT
1070
    12
  0
LINE
  5
1F2
330
1E9
100
AcDbEntity
  8
0
 62
   253
370
    13
100
AcDbLine
 10
-0.9895351995428996
 20
3.960212268762932
 30
0.0
 11
0.3810627123917528
 21
5.330810180697586
 31
0.0
1001
CHIEFARC-LNWT
1070
    12
  0
LINE
  5
1F3
330
1E9
100
AcDbEntity
  8
0
 62
   253
370
    13
100
AcDbLine
 10
-0.9895351995428996
 20
4.66731904994948
 30
0.0
 11
0.3086204586901198
 21
5.965474708182499
 31
0.0
1001
CHIEFARC-LNWT
1070
    12
  0
LINE
  5
1F4
330
1E9
100
AcDbEntity
  8
0
 62
   253
370
    13
100
AcDbLine
 10
-0.9895351995428996
 20
5.374425831136028
 30
0.0
 11
0.2361782049884865
 21
6.600139235667415
 31
0.0
1001
CHIEFARC-LNWT
1070
    12
  0
LINE
  5
1F5
330
1E9
100
AcDbEntity
  8
0
 62
   253
370
    13
100
AcDbLine
 10
-0.9895351995428996
 20
6.081532612322576
 30
0.0
 11
0.1637359512868535
 21
7.234803763152327
 31
0.0
1001
CHIEFARC-LNWT
1070
    12
  0
LINE
  5
1F6
330
1E9
100
AcDbEntity
  8
0
 62
   253
370
    13
100
AcDbLine
 10
-0.9895351995428996
 20
6.788639393509124
 30
0.0
 11
0.0912936975852203
 21
7.869468290637242
 31
0.0
1001
CHIEFARC-LNWT
1070
    12
  0
LINE
  5
1F7
330
1E9
100
AcDbEntity
  8
0
 62
   253
370
    13
100
AcDbLine
 10
-0.9895351995428996
 20
7.49574617469567
 30
0.0
 11
0.0188514438835872
 21
8.504132818122157
 31
0.0
1001
CHIEFARC-LNWT
1070
    12
  0
LINE
  5
1F8
330
1E9
100
AcDbEntity
  8
0
 62
   253
370
    13
100
AcDbLine
 10
-0.9895351995428996
 20
8.202852955882218
 30
0.0
 11
-0.0535908098180461
 21
9.138797345607072
 31
0.0
1001
CHIEFARC-LNWT
1070
    12
  0
LINE
  5
1F9
330
1E9
100
AcDbEntity
  8
0
 62
   253
370
    13
100
AcDbLine
 10
-0.9895351995428996
 20
8.909959737068764
 30
0.0
 11
-0.126033063519679
 21
9.773461873091984
 31
0.0
1001
CHIEFARC-LNWT
1070
    12
  0
LINE
  5
1FA
330
1E9
100
AcDbEntity
  8
0
 62
   253
370
    13
100
AcDbLine
 10
-0.9895351995428996
 20
9.617066518255312
 30
0.0
 11
-0.1984753172213123
 21
10.4081264005769
 31
0.0
1001
CHIEFARC-LNWT
1070
    12
  0
LINE
  5
1FB
330
1E9
100
AcDbEntity
  8
0
 62
   253
370
    13
100
AcDbLine
 10
-0.9895351995428996
 20
10.32417329944186
 30
0.0
 11
-0.3075457951441845
 21
11.00616270384057
 31
0.0
1001
CHIEFARC-LNWT
1070
    12
  0
LINE
  5
1FC
330
1E9
100
AcDbEntity
  8
0
 62
   253
370
    13
100
AcDbLine
 10
-0.2662167391447811
 20
11.04749175983998
 30
0.0
 11
0.1927275447475723
 21
11.50643604373233
 31
0.0
1001
CHIEFARC-LNWT
1070
    12
  0
LINE
  5
1FD
330
1E9
100
AcDbEntity
  8
0
 62
   253
370
    13
100
AcDbLine
 10
0.9606007420048182
 20
0.25349396081827
 30
0.0
 11
0.9895351995428712
 21
0.2824284183563233
 31
0.0
1001
CHIEFARC-LNWT
1070
    12
  0
LINE
  5
1FE
330
1E9
100
AcDbEntity
  8
0
 62
   253
370
    13
100
AcDbLine
 10
0.888158488303185
 20
0.8881584883031843
 30
0.0
 11
0.9895351995428712
 21
0.9895351995428712
 31
0.0
1001
CHIEFARC-LNWT
1070
    12
  0
LINE
  5
1FF
330
1E9
100
AcDbEntity
  8
0
 62
   253
370
    13
100
AcDbLine
 10
0.8157162346015518
 20
1.522823015788099
 30
0.0
 11
0.9895351995428712
 21
1.696641980729417
 31
0.0
1001
CHIEFARC-LNWT
1070
    12
  0
LINE
  5
200
330
1E9
100
AcDbEntity
  8
0
 62
   253
370
    13
100
AcDbLine
 10
0.7432739808999187
 20
2.157487543273013
 30
0.0
 11
0.9895351995428712
 21
2.403748761915967
 31
0.0
1001
CHIEFARC-LNWT
1070
    12
  0
LINE
  5
201
330
1E9
100
AcDbEntity
  8
0
 62
   253
370
    13
100
AcDbLine
 10
0.6708317271982855
 20
2.792152070757928
 30
0.0
 11
0.9895351995428712
 21
3.11085554310251
 31
0.0
1001
CHIEFARC-LNWT
1070
    12
  0
LINE
  5
202
330
1E9
100
AcDbEntity
  8
0
 62
   253
370
    13
100
AcDbLine
 10
0.5983894734966524
 20
3.426816598242842
 30
0.0
 11
0.9895351995428712
 21
3.817962324289061
 31
0.0
1001
CHIEFARC-LNWT
1070
    12
  0
LINE
  5
203
330
1E9
100
AcDbEntity
  8
0
 62
   253
370
    13
100
AcDbLine
 10
0.5259472197950192
 20
4.061481125727756
 30
0.0
 11
0.9895351995428712
 21
4.52506910547561
 31
0.0
1001
CHIEFARC-LNWT
1070
    12
  0
LINE
  5
204
330
1E9
100
AcDbEntity
  8
0
 62
   253
370
    13
100
AcDbLine
 10
0.4535049660933861
 20
4.69614565321267
 30
0.0
 11
0.9895351995428712
 21
5.232175886662156
 31
0.0
1001
CHIEFARC-LNWT
1070
    12
  0
LINE
  5
205
330
1E9
100
AcDbEntity
  8
0
 62
   253
370
    13
100
AcDbLine
 10
0.381062712391753
 20
5.330810180697584
 30
0.0
 11
0.9895351995428712
 21
5.939282667848703
 31
0.0
1001
CHIEFARC-LNWT
1070
    12
  0
LINE
  5
206
330
1E9
100
AcDbEntity
  8
0
 62
   253
370
    13
100
AcDbLine
 10
0.3086204586901199
 20
5.965474708182498
 30
0.0
 11
0.9895351995428712
 21
6.646389449035251
 31
0.0
1001
CHIEFARC-LNWT
1070
    12
  0
LINE
  5
207
330
1E9
100
AcDbEntity
  8
0
 62
   253
370
    13
100
AcDbLine
 10
0.2361782049884865
 20
6.600139235667415
 30
0.0
 11
0.9895351995428712
 21
7.3534962302218
 31
0.0
1001
CHIEFARC-LNWT
1070
    12
  0
LINE
  5
208
330
1E9
100
AcDbEntity
  8
0
 62
   253
370
    13
100
AcDbLine
 10
0.1637359512868534
 20
7.234803763152328
 30
0.0
 11
0.9895351995428712
 21
8.060603011408347
 31
0.0
1001
CHIEFARC-LNWT
1070
    12
  0
LINE
  5
209
330
1E9
100
AcDbEntity
  8
0
 62
   253
370
    13
100
AcDbLine
 10
0.0912936975852205
 20
7.869468290637241
 30
0.0
 11
0.9895351995428712
 21
8.767709792594891
 31
0.0
1001
CHIEFARC-LNWT
1070
    12
  0
LINE
  5
20A
330
1E9
100
AcDbEntity
  8
0
 62
   253
370
    13
100
AcDbLine
 10
0.0188514438835871
 20
8.504132818122157
 30
0.0
 11
0.9895351995428712
 21
9.47481657378144
 31
0.0
1001
CHIEFARC-LNWT
1070
    12
  0
LINE
  5
20B
330
1E9
100
AcDbEntity
  8
0
 62
   253
370
    13
100
AcDbLine
 10
-0.053590809818046
 20
9.138797345607072
 30
0.0
 11
0.9895351995428712
 21
10.18192335496799
 31
0.0
1001
CHIEFARC-LNWT
1070
    12
  0
LINE
  5
20C
330
1E9
100
AcDbEntity
  8
0
 62
   253
370
    13
100
AcDbLine
 10
-0.1260330635196791
 20
9.773461873091986
 30
0.0
 11
0.9895351995428712
 21
10.88903013615453
 31
0.0
1001
CHIEFARC-LNWT
1070
    12
  0
LINE
  5
20D
330
1E9
100
AcDbEntity
  8
0
 62
   253
370
    13
100
AcDbLine
 10
-0.1984753172213121
 20
10.4081264005769
 30
0.0
 11
0.3998296369851195
 21
11.00643135478333
 31
0.0
1001
CHIEFARC-LNWT
1070
    12
  0
LWPOLYLINE
  5
20E
330
1E9
100
AcDbEntity
  8
0
 62
     7
370
    18
100
AcDbPolyline
 90
        8
 70
     1
 43
0.0
 10
-0.9895351995428989
 20
11.00642784934939
 10
-0.2667349194503856
 20
11.00614683728849
 10
-0.2604648004571288
 20
11.50643135478344
 10
0.3645351995428713
 20
11.50643782133807
 10
0.3645351995428712
 20
11.00643135478333
 10
0.9895351995428712
 20
11.00643135478333
 10
0.9895351995428712
 20
0.0000000000001137
 10
-0.9895351995428996
 20
0.0000000000000058
  0
LWPOLYLINE
  5
20F
330
1E9
100
AcDbEntity
  8
0
100
AcDbPolyline
 90
        4
 70
     0
 43
0.0
 10
-0.7623736211753851
 20
0.0560614793768082
 10
-0.7623736211754419
 20
10.00643135478333
 10
-0.2604648004571288
 20
10.00643135478333
 10
-0.2667349194503856
 20
11.0061468372885
  0
LWPOLYLINE
  5
210
330
1E9
100
AcDbEntity
  8
0
100
AcDbPolyline
 90
        8
 70
     1
 43
0.0
 10
-0.9895351995428989
 20
11.00642784934939
 10
-0.2667349194503856
 20
11.00614683728849
 10
-0.2604648004571288
 20
11.50643135478344
 10
0.3645351995428713
 20
11.50643782133807
 10
0.3645351995428712
 20
11.00643135478333
 10
0.9895351995428712
 20
11.00643135478333
 10
0.9895351995428712
 20
0.0000000000001137
 10
-0.9895351995428996
 20
0.0000000000000058
  0
ENDBLK
  5
212
330
1E9
100
AcDbEntity
  8
0
100
AcDbBlockEnd
  0
BLOCK
  5
28B
330
223
100
AcDbEntity
  8
0
100
AcDbBlockBegin
  2
5__Bevel
 70
     0
 10
0.0
 20
0.0
 30
0.0
  3
5__Bevel
  1

  0
LINE
  5
224
330
223
100
AcDbEntity
  8
0
 62
   254
370
     0
100
AcDbLine
 10
0.0042772373097917
 20
0.0042772373097917
 30
0.0
 11
0.1124631756624808
 21
0.1124631756624801
 31
0.0
  0
LINE
  5
225
330
223
100
AcDbEntity
  8
0
 62
   254
370
     0
100
AcDbLine
 10
-0.1653644444656727
 20
0.0114122508309642
 30
0.0
 11
0.1232903519467153
 21
0.3000670472433509
 31
0.0
  0
LINE
  5
226
330
223
100
AcDbEntity
  8
0
 62
   254
370
     0
100
AcDbLine
 10
-0.3350061262411371
 20
0.0185472643521367
 30
0.0
 11
0.1341175282309498
 21
0.4876709188242234
 31
0.0
  0
LINE
  5
227
330
223
100
AcDbEntity
  8
0
 62
   254
370
     0
100
AcDbLine
 10
-0.3425688386792394
 20
0.1877612472106712
 30
0.0
 11
0.1449447045151842
 21
0.6752747904050946
 31
0.0
  0
LINE
  5
228
330
223
100
AcDbEntity
  8
0
 62
   254
370
     0
100
AcDbLine
 10
-0.3149227076312004
 20
0.3921840735553471
 30
0.0
 11
0.1557718807994187
 21
0.8628786619859663
 31
0.0
  0
LINE
  5
229
330
223
100
AcDbEntity
  8
0
 62
   254
370
     0
100
AcDbLine
 10
-0.2872765765831615
 20
0.596606899900023
 30
0.0
 11
0.1665990570836531
 21
1.050482533566837
 31
0.0
  0
LINE
  5
22A
330
223
100
AcDbEntity
  8
0
 62
   254
370
     0
100
AcDbLine
 10
-0.2596304455351226
 20
0.8010297262446989
 30
0.0
 11
0.1774262333678876
 21
1.238086405147708
 31
0.0
  0
LINE
  5
22B
330
223
100
AcDbEntity
  8
0
 62
   254
370
     0
100
AcDbLine
 10
-0.2319843144870837
 20
1.005452552589374
 30
0.0
 11
0.1882534096521221
 21
1.42569027672858
 31
0.0
  0
LINE
  5
22C
330
223
100
AcDbEntity
  8
0
 62
   254
370
     0
100
AcDbLine
 10
-0.2043381834390449
 20
1.20987537893405
 30
0.0
 11
0.1990805859363565
 21
1.613294148309451
 31
0.0
  0
LINE
  5
22D
330
223
100
AcDbEntity
  8
0
 62
   254
370
     0
100
AcDbLine
 10
-0.1766920523910059
 20
1.414298205278726
 30
0.0
 11
0.209907762220591
 21
1.800898019890323
 31
0.0
  0
LINE
  5
22E
330
223
100
AcDbEntity
  8
0
 62
   254
370
     0
100
AcDbLine
 10
-0.149045921342967
 20
1.618721031623402
 30
0.0
 11
0.2207349385048254
 21
1.988501891471194
 31
0.0
  0
LINE
  5
22F
330
223
100
AcDbEntity
  8
0
 62
   254
370
     0
100
AcDbLine
 10
-0.1213997902949281
 20
1.823143857968078
 30
0.0
 11
0.2315621147890599
 21
2.176105763052065
 31
0.0
  0
LINE
  5
230
330
223
100
AcDbEntity
  8
0
 62
   254
370
     0
100
AcDbLine
 10
-0.0937536592468892
 20
2.027566684312753
 30
0.0
 11
0.2423892910732943
 21
2.363709634632937
 31
0.0
  0
LINE
  5
231
330
223
100
AcDbEntity
  8
0
 62
   254
370
     0
100
AcDbLine
 10
-0.0661075281988504
 20
2.231989510657429
 30
0.0
 11
0.2532164673575288
 21
2.551313506213808
 31
0.0
  0
LINE
  5
232
330
223
100
AcDbEntity
  8
0
 62
   254
370
     0
100
AcDbLine
 10
-0.0384613971508115
 20
2.436412337002105
 30
0.0
 11
0.2640436436417632
 21
2.73891737779468
 31
0.0
  0
LINE
  5
233
330
223
100
AcDbEntity
  8
0
 62
   254
370
     0
100
AcDbLine
 10
-0.0108152661027724
 20
2.640835163346781
 30
0.0
 11
0.2748708199259977
 21
2.926521249375551
 31
0.0
  0
LINE
  5
234
330
223
100
AcDbEntity
  8
0
 62
   254
370
     0
100
AcDbLine
 10
0.0168308649452665
 20
2.845257989691457
 30
0.0
 11
0.2856979962102321
 21
3.114125120956421
 31
0.0
  0
LINE
  5
235
330
223
100
AcDbEntity
  8
0
 62
   254
370
     0
100
AcDbLine
 10
0.0444769959933054
 20
3.049680816036133
 30
0.0
 11
0.2965251724944666
 21
3.301728992537293
 31
0.0
  0
LINE
  5
236
330
223
100
AcDbEntity
  8
0
 62
   254
370
     0
100
AcDbLine
 10
0.0721231270413442
 20
3.254103642380808
 30
0.0
 11
0.307352348778701
 21
3.489332864118165
 31
0.0
  0
LINE
  5
237
330
223
100
AcDbEntity
  8
0
 62
   254
370
     0
100
AcDbLine
 10
0.0997692580893831
 20
3.458526468725484
 30
0.0
 11
0.3181795250629355
 21
3.676936735699035
 31
0.0
  0
LINE
  5
238
330
223
100
AcDbEntity
  8
0
 62
   254
370
     0
100
AcDbLine
 10
0.1274153891374221
 20
3.662949295070161
 30
0.0
 11
0.32900670134717
 21
3.864540607279908
 31
0.0
  0
LINE
  5
239
330
223
100
AcDbEntity
  8
0
 62
   254
370
     0
100
AcDbLine
 10
0.155061520185461
 20
3.867372121414836
 30
0.0
 11
0.3398338776314044
 21
4.052144478860779
 31
0.0
  0
LINE
  5
23A
330
223
100
AcDbEntity
  8
0
 62
   254
370
     0
100
AcDbLine
 10
0.1827076512334997
 20
4.071794947759511
 30
0.0
 11
0.3506610539156388
 21
4.23974835044165
 31
0.0
  0
LINE
  5
23B
330
223
100
AcDbEntity
  8
0
 62
   254
370
     0
100
AcDbLine
 10
0.2103537822815387
 20
4.276217774104187
 30
0.0
 11
0.3614882301998733
 21
4.427352222022521
 31
0.0
  0
LINE
  5
23C
330
223
100
AcDbEntity
  8
0
 62
   254
370
     0
100
AcDbLine
 10
0.2379999133295777
 20
4.480640600448863
 30
0.0
 11
0.2550669655642125
 21
4.497707652683497
 31
0.0
  0
LWPOLYLINE
  5
23D
330
223
100
AcDbEntity
  8
0
 62
    35
370
    18
100
AcDbPolyline
 90
        4
 70
     1
 43
0.0
 10
0.3652811206104085
 20
4.493072120435472
 10
0.1059725919761111
 20
0.0000000000000009
 10
-0.3652811206104111
 20
0.0198206099822774
 10
0.2403915357817129
 20
4.498324891258532
  0
LINE
  5
23E
330
223
100
AcDbEntity
  8
0
 62
   254
370
     0
100
AcDbLine
 10
0.0889901082806594
 20
3.624524014213397
 30
0.0
 11
0.1070564785704349
 21
3.642590384503173
 31
0.0
  0
LINE
  5
23F
330
223
100
AcDbEntity
  8
0
 62
   254
370
     0
100
AcDbLine
 10
-0.080651573494805
 20
3.63165902773457
 30
0.0
 11
0.1178836548546693
 21
3.830194256084043
 31
0.0
  0
LINE
  5
240
330
223
100
AcDbEntity
  8
0
 62
   254
370
     0
100
AcDbLine
 10
-0.2502932552702689
 20
3.638794041255742
 30
0.0
 11
0.1287108311389037
 21
4.017798127664913
 31
0.0
  0
LINE
  5
241
330
223
100
AcDbEntity
  8
0
 62
   254
370
     0
100
AcDbLine
 10
-0.3563743085838354
 20
3.709489683238812
 30
0.0
 11
0.1395380074231383
 21
4.205401999245787
 31
0.0
  0
LINE
  5
242
330
223
100
AcDbEntity
  8
0
 62
   254
370
     0
100
AcDbLine
 10
-0.3287281775357965
 20
3.913912509583488
 30
0.0
 11
0.1503651837073727
 21
4.393005870826657
 31
0.0
  0
LINE
  5
243
330
223
100
AcDbEntity
  8
0
 62
   254
370
     0
100
AcDbLine
 10
-0.3010820464877575
 20
4.118335335928164
 30
0.0
 11
0.1611923599916072
 21
4.58060974240753
 31
0.0
  0
LINE
  5
244
330
223
100
AcDbEntity
  8
0
 62
   254
370
     0
100
AcDbLine
 10
-0.2734359154397186
 20
4.32275816227284
 30
0.0
 11
0.1720195362758417
 21
4.768213613988401
 31
0.0
  0
LINE
  5
245
330
223
100
AcDbEntity
  8
0
 62
   254
370
     0
100
AcDbLine
 10
-0.2457897843916798
 20
4.527180988617515
 30
0.0
 11
0.182846712560076
 21
4.95581748556927
 31
0.0
  0
LINE
  5
246
330
223
100
AcDbEntity
  8
0
 62
   254
370
     0
100
AcDbLine
 10
-0.2181436533436409
 20
4.731603814962192
 30
0.0
 11
0.1936738888443105
 21
5.143421357150143
 31
0.0
  0
LINE
  5
247
330
223
100
AcDbEntity
  8
0
 62
   254
370
     0
100
AcDbLine
 10
-0.190497522295602
 20
4.936026641306867
 30
0.0
 11
0.2045010651285449
 21
5.331025228731013
 31
0.0
  0
LINE
  5
248
330
223
100
AcDbEntity
  8
0
 62
   254
370
     0
100
AcDbLine
 10
-0.162851391247563
 20
5.140449467651544
 30
0.0
 11
0.2153282414127794
 21
5.518629100311886
 31
0.0
  0
LINE
  5
249
330
223
100
AcDbEntity
  8
0
 62
   254
370
     0
100
AcDbLine
 10
-0.1352052601995241
 20
5.34487229399622
 30
0.0
 11
0.2261554176970139
 21
5.706232971892756
 31
0.0
  0
LINE
  5
24A
330
223
100
AcDbEntity
  8
0
 62
   254
370
     0
100
AcDbLine
 10
-0.1075591291514852
 20
5.549295120340894
 30
0.0
 11
0.2369825939812483
 21
5.893836843473627
 31
0.0
  0
LINE
  5
24B
330
223
100
AcDbEntity
  8
0
 62
   254
370
     0
100
AcDbLine
 10
-0.0799129981034464
 20
5.75371794668557
 30
0.0
 11
0.2478097702654828
 21
6.0814407150545
 31
0.0
  0
LINE
  5
24C
330
223
100
AcDbEntity
  8
0
 62
   254
370
     0
100
AcDbLine
 10
-0.0522668670554075
 20
5.958140773030246
 30
0.0
 11
0.2586369465497172
 21
6.26904458663537
 31
0.0
  0
LINE
  5
24D
330
223
100
AcDbEntity
  8
0
 62
   254
370
     0
100
AcDbLine
 10
-0.0246207360073684
 20
6.162563599374923
 30
0.0
 11
0.2694641228339517
 21
6.456648458216242
 31
0.0
  0
LINE
  5
24E
330
223
100
AcDbEntity
  8
0
 62
   254
370
     0
100
AcDbLine
 10
0.0030253950406705
 20
6.366986425719599
 30
0.0
 11
0.2802912991181862
 21
6.644252329797114
 31
0.0
  0
LINE
  5
24F
330
223
100
AcDbEntity
  8
0
 62
   254
370
     0
100
AcDbLine
 10
0.0306715260887093
 20
6.571409252064274
 30
0.0
 11
0.2911184754024206
 21
6.831856201377985
 31
0.0
  0
LINE
  5
250
330
223
100
AcDbEntity
  8
0
 62
   254
370
     0
100
AcDbLine
 10
0.0583176571367481
 20
6.775832078408949
 30
0.0
 11
0.301945651686655
 21
7.019460072958855
 31
0.0
  0
LINE
  5
251
330
223
100
AcDbEntity
  8
0
 62
   254
370
     0
100
AcDbLine
 10
0.085963788184787
 20
6.980254904753625
 30
0.0
 11
0.3127728279708895
 21
7.207063944539726
 31
0.0
  0
LINE
  5
252
330
223
100
AcDbEntity
  8
0
 62
   254
370
     0
100
AcDbLine
 10
0.1136099192328262
 20
7.184677731098303
 30
0.0
 11
0.323600004255124
 21
7.394667816120599
 31
0.0
  0
LINE
  5
253
330
223
100
AcDbEntity
  8
0
 62
   254
370
     0
100
AcDbLine
 10
0.141256050280865
 20
7.389100557442977
 30
0.0
 11
0.3344271805393584
 21
7.58227168770147
 31
0.0
  0
LINE
  5
254
330
223
100
AcDbEntity
  8
0
 62
   254
370
     0
100
AcDbLine
 10
0.1689021813289038
 20
7.593523383787653
 30
0.0
 11
0.3452543568235928
 21
7.769875559282341
 31
0.0
  0
LINE
  5
255
330
223
100
AcDbEntity
  8
0
 62
   254
370
     0
100
AcDbLine
 10
0.1965483123769427
 20
7.797946210132328
 30
0.0
 11
0.3560815331078274
 21
7.957479430863213
 31
0.0
  0
LINE
  5
256
330
223
100
AcDbEntity
  8
0
 62
   254
370
     0
100
AcDbLine
 10
0.2241944434249815
 20
8.002369036477003
 30
0.0
 11
0.3397798365350795
 21
8.117954429587101
 31
0.0
  0
LWPOLYLINE
  5
257
330
223
100
AcDbEntity
  8
0
 62
    35
370
    18
100
AcDbPolyline
 90
        4
 70
     1
 43
0.0
 10
0.3652811206104085
 20
8.116881862958543
 10
0.1059725919761111
 20
3.623809742523073
 10
-0.3652811206104111
 20
3.643630352505349
 10
0.2403915357817129
 20
8.122134633781604
  0
LINE
  5
258
330
223
100
AcDbEntity
  8
0
 62
   254
370
     0
100
AcDbLine
 10
-0.0258202461256985
 20
10.75755816696915
 30
0.0
 11
0.1143841113397115
 21
10.89776252443456
 31
0.0
  0
LINE
  5
259
330
223
100
AcDbEntity
  8
0
 62
   254
370
     0
100
AcDbLine
 10
-0.1954619279011641
 20
10.76469318049032
 30
0.0
 11
0.125211287623946
 21
11.08536639601543
 31
0.0
  0
LINE
  5
25A
330
223
100
AcDbEntity
  8
0
 62
   254
370
     0
100
AcDbLine
 10
-0.3651036096766302
 20
10.77182819401149
 30
0.0
 11
0.1360384639081805
 21
11.2729702675963
 31
0.0
  0
LINE
  5
25B
330
223
100
AcDbEntity
  8
0
 62
   254
370
     0
100
AcDbLine
 10
-0.3376639181280797
 20
10.97604458085668
 30
0.0
 11
0.1468656401924147
 21
11.46057413917717
 31
0.0
  0
LINE
  5
25C
330
223
100
AcDbEntity
  8
0
 62
   254
370
     0
100
AcDbLine
 10
-0.3100177870800405
 20
11.18046740720136
 30
0.0
 11
0.1576928164766494
 21
11.64817801075805
 31
0.0
  0
LINE
  5
25D
330
223
100
AcDbEntity
  8
0
 62
   254
370
     0
100
AcDbLine
 10
-0.282371656032002
 20
11.38489023354603
 30
0.0
 11
0.1685199927608838
 21
11.83578188233892
 31
0.0
  0
LINE
  5
25E
330
223
100
AcDbEntity
  8
0
 62
   254
370
     0
100
AcDbLine
 10
-0.2547255249839629
 20
11.58931305989071
 30
0.0
 11
0.1793471690451183
 21
12.02338575391979
 31
0.0
  0
LINE
  5
25F
330
223
100
AcDbEntity
  8
0
 62
   254
370
     0
100
AcDbLine
 10
-0.2270793939359238
 20
11.79373588623539
 30
0.0
 11
0.1901743453293527
 21
12.21098962550066
 31
0.0
  0
LINE
  5
260
330
223
100
AcDbEntity
  8
0
 62
   254
370
     0
100
AcDbLine
 10
-0.1994332628878852
 20
11.99815871258006
 30
0.0
 11
0.201001521613587
 21
12.39859349708153
 31
0.0
  0
LINE
  5
261
330
223
100
AcDbEntity
  8
0
 62
   254
370
     0
100
AcDbLine
 10
-0.171787131839846
 20
12.20258153892474
 30
0.0
 11
0.2118286978978217
 21
12.5861973686624
 31
0.0
  0
LINE
  5
262
330
223
100
AcDbEntity
  8
0
 62
   254
370
     0
100
AcDbLine
 10
-0.1441410007918076
 20
12.40700436526941
 30
0.0
 11
0.222655874182056
 21
12.77380124024327
 31
0.0
  0
LINE
  5
263
330
223
100
AcDbEntity
  8
0
 62
   254
370
     0
100
AcDbLine
 10
-0.1164948697437685
 20
12.61142719161409
 30
0.0
 11
0.2334830504662905
 21
12.96140511182415
 31
0.0
  0
LINE
  5
264
330
223
100
AcDbEntity
  8
0
 62
   254
370
     0
100
AcDbLine
 10
-0.0888487386957293
 20
12.81585001795876
 30
0.0
 11
0.244310226750525
 21
13.14900898340502
 31
0.0
  0
LINE
  5
265
330
223
100
AcDbEntity
  8
0
 62
   254
370
     0
100
AcDbLine
 10
-0.0612026076476908
 20
13.02027284430344
 30
0.0
 11
0.2551374030347593
 21
13.33661285498589
 31
0.0
  0
LINE
  5
266
330
223
100
AcDbEntity
  8
0
 62
   254
370
     0
100
AcDbLine
 10
-0.0335564765996514
 20
13.22469567064812
 30
0.0
 11
0.2659645793189939
 21
13.52421672656676
 31
0.0
  0
LINE
  5
267
330
223
100
AcDbEntity
  8
0
 62
   254
370
     0
100
AcDbLine
 10
-0.0059103455516131
 20
13.42911849699279
 30
0.0
 11
0.2767917556032283
 21
13.71182059814763
 31
0.0
  0
LINE
  5
268
330
223
100
AcDbEntity
  8
0
 62
   254
370
     0
100
AcDbLine
 10
0.021735785496426
 20
13.63354132333746
 30
0.0
 11
0.2876189318874628
 21
13.8994244697285
 31
0.0
  0
LINE
  5
269
330
223
100
AcDbEntity
  8
0
 62
   254
370
     0
100
AcDbLine
 10
0.0493819165444653
 20
13.83796414968214
 30
0.0
 11
0.2984461081716973
 21
14.08702834130937
 31
0.0
  0
LINE
  5
26A
330
223
100
AcDbEntity
  8
0
 62
   254
370
     0
100
AcDbLine
 10
0.0770280475925038
 20
14.04238697602682
 30
0.0
 11
0.3092732844559316
 21
14.27463221289024
 31
0.0
  0
LINE
  5
26B
330
223
100
AcDbEntity
  8
0
 62
   254
370
     0
100
AcDbLine
 10
0.1046741786405431
 20
14.24680980237149
 30
0.0
 11
0.3201004607401662
 21
14.46223608447112
 31
0.0
  0
LINE
  5
26C
330
223
100
AcDbEntity
  8
0
 62
   254
370
     0
100
AcDbLine
 10
0.1323203096885816
 20
14.45123262871617
 30
0.0
 11
0.3309276370244005
 21
14.64983995605199
 31
0.0
  0
LINE
  5
26D
330
223
100
AcDbEntity
  8
0
 62
   254
370
     0
100
AcDbLine
 10
0.1599664407366206
 20
14.65565545506084
 30
0.0
 11
0.3417548133086349
 21
14.83744382763286
 31
0.0
  0
LINE
  5
26E
330
223
100
AcDbEntity
  8
0
 62
   254
370
     0
100
AcDbLine
 10
0.1876125717846598
 20
14.86007828140552
 30
0.0
 11
0.3525819895928696
 21
15.02504769921373
 31
0.0
  0
LINE
  5
26F
330
223
100
AcDbEntity
  8
0
 62
   254
370
     0
100
AcDbLine
 10
0.2152587028326982
 20
15.06450110775019
 30
0.0
 11
0.3634091658771039
 21
15.2126515707946
 31
0.0
  0
LWPOLYLINE
  5
270
330
223
100
AcDbEntity
  8
0
 62
    35
370
    18
100
AcDbPolyline
 90
        4
 70
     1
 43
0.0
 10
0.3652811206104085
 20
15.24508717045359
 10
0.1059725919761111
 20
10.75201505001812
 10
-0.3652811206104111
 20
10.77183566000039
 10
0.2403915357817129
 20
15.25033994127665
  0
LINE
  5
271
330
223
100
AcDbEntity
  8
0
 62
   254
370
     0
100
AcDbLine
 10
0.059108564678896
 20
7.130176376544371
 30
0.0
 11
0.1089636321475231
 21
7.180031444012998
 31
0.0
  0
LINE
  5
272
330
223
100
AcDbEntity
  8
0
 62
   254
370
     0
100
AcDbLine
 10
-0.1105331170965679
 20
7.137311390065544
 30
0.0
 11
0.1197908084317575
 21
7.367635315593868
 31
0.0
  0
LINE
  5
273
330
223
100
AcDbEntity
  8
0
 62
   254
370
     0
100
AcDbLine
 10
-0.2801747988720323
 20
7.144446403586716
 30
0.0
 11
0.1306179847159919
 21
7.555239187174739
 31
0.0
  0
LINE
  5
274
330
223
100
AcDbEntity
  8
0
 62
   254
370
     0
100
AcDbLine
 10
-0.3515045792715225
 20
7.249893318483863
 30
0.0
 11
0.1414451610002264
 21
7.742843058755611
 31
0.0
  0
LINE
  5
275
330
223
100
AcDbEntity
  8
0
 62
   254
370
     0
100
AcDbLine
 10
-0.3238584482234837
 20
7.454316144828538
 30
0.0
 11
0.1522723372844609
 21
7.930446930336483
 31
0.0
  0
LINE
  5
276
330
223
100
AcDbEntity
  8
0
 62
   254
370
     0
100
AcDbLine
 10
-0.2962123171754446
 20
7.658738971173215
 30
0.0
 11
0.1630995135686954
 21
8.118050801917356
 31
0.0
  0
LINE
  5
277
330
223
100
AcDbEntity
  8
0
 62
   254
370
     0
100
AcDbLine
 10
-0.2685661861274059
 20
7.863161797517889
 30
0.0
 11
0.1739266898529298
 21
8.305654673498225
 31
0.0
  0
LINE
  5
278
330
223
100
AcDbEntity
  8
0
 62
   254
370
     0
100
AcDbLine
 10
-0.2409200550793669
 20
8.067584623862565
 30
0.0
 11
0.1847538661371642
 21
8.493258545079097
 31
0.0
  0
LINE
  5
279
330
223
100
AcDbEntity
  8
0
 62
   254
370
     0
100
AcDbLine
 10
-0.2132739240313278
 20
8.272007450207244
 30
0.0
 11
0.1955810424213987
 21
8.680862416659968
 31
0.0
  0
LINE
  5
27A
330
223
100
AcDbEntity
  8
0
 62
   254
370
     0
100
AcDbLine
 10
-0.1856277929832892
 20
8.476430276551916
 30
0.0
 11
0.2064082187056331
 21
8.868466288240839
 31
0.0
  0
LINE
  5
27B
330
223
100
AcDbEntity
  8
0
 62
   254
370
     0
100
AcDbLine
 10
-0.1579816619352502
 20
8.680853102896593
 30
0.0
 11
0.2172353949898676
 21
9.056070159821711
 31
0.0
  0
LINE
  5
27C
330
223
100
AcDbEntity
  8
0
 62
   254
370
     0
100
AcDbLine
 10
-0.1303355308872114
 20
8.885275929241267
 30
0.0
 11
0.228062571274102
 21
9.243674031402582
 31
0.0
  0
LINE
  5
27D
330
223
100
AcDbEntity
  8
0
 62
   254
370
     0
100
AcDbLine
 10
-0.1026893998391724
 20
9.089698755585944
 30
0.0
 11
0.2388897475583364
 21
9.431277902983453
 31
0.0
  0
LINE
  5
27E
330
223
100
AcDbEntity
  8
0
 62
   254
370
     0
100
AcDbLine
 10
-0.0750432687911333
 20
9.294121581930622
 30
0.0
 11
0.249716923842571
 21
9.618881774564326
 31
0.0
  0
LINE
  5
27F
330
223
100
AcDbEntity
  8
0
 62
   254
370
     0
100
AcDbLine
 10
-0.0473971377430947
 20
9.498544408275295
 30
0.0
 11
0.2605441001268053
 21
9.806485646145195
 31
0.0
  0
LINE
  5
280
330
223
100
AcDbEntity
  8
0
 62
   254
370
     0
100
AcDbLine
 10
-0.0197510066950555
 20
9.702967234619972
 30
0.0
 11
0.2713712764110399
 21
9.994089517726067
 31
0.0
  0
LINE
  5
281
330
223
100
AcDbEntity
  8
0
 62
   254
370
     0
100
AcDbLine
 10
0.007895124352983
 20
9.907390060964646
 30
0.0
 11
0.2821984526952742
 21
10.18169338930694
 31
0.0
  0
LINE
  5
282
330
223
100
AcDbEntity
  8
0
 62
   254
370
     0
100
AcDbLine
 10
0.0355412554010221
 20
10.11181288730932
 30
0.0
 11
0.2930256289795087
 21
10.36929726088781
 31
0.0
  0
LINE
  5
283
330
223
100
AcDbEntity
  8
0
 62
   254
370
     0
100
AcDbLine
 10
0.0631873864490613
 20
10.316235713654
 30
0.0
 11
0.3038528052637433
 21
10.55690113246868
 31
0.0
  0
LINE
  5
284
330
223
100
AcDbEntity
  8
0
 62
   254
370
     0
100
AcDbLine
 10
0.0908335174970999
 20
10.52065853999867
 30
0.0
 11
0.3146799815479776
 21
10.74450500404955
 31
0.0
  0
LINE
  5
285
330
223
100
AcDbEntity
  8
0
 62
   254
370
     0
100
AcDbLine
 10
0.118479648545139
 20
10.72508136634335
 30
0.0
 11
0.3255071578322122
 21
10.93210887563042
 31
0.0
  0
LINE
  5
286
330
223
100
AcDbEntity
  8
0
 62
   254
370
     0
100
AcDbLine
 10
0.1461257795931775
 20
10.92950419268803
 30
0.0
 11
0.3363343341164465
 21
11.11971274721129
 31
0.0
  0
LINE
  5
287
330
223
100
AcDbEntity
  8
0
 62
   254
370
     0
100
AcDbLine
 10
0.1737719106412166
 20
11.1339270190327
 30
0.0
 11
0.347161510400681
 21
11.30731661879217
 31
0.0
  0
LINE
  5
288
330
223
100
AcDbEntity
  8
0
 62
   254
370
     0
100
AcDbLine
 10
0.2014180416892559
 20
11.33834984537738
 30
0.0
 11
0.3579886866849155
 21
11.49492049037304
 31
0.0
  0
LINE
  5
289
330
223
100
AcDbEntity
  8
0
 62
   254
370
     0
100
AcDbLine
 10
0.2290641727372944
 20
11.54277267172205
 30
0.0
 11
0.3098982929333173
 21
11.62360679191807
 31
0.0
  0
LWPOLYLINE
  5
28A
330
223
100
AcDbEntity
  8
0
 62
    35
370
    18
100
AcDbPolyline
 90
        4
 70
     1
 43
0.0
 10
0.3652811206104085
 20
11.62127742793052
 10
0.1059725919761111
 20
7.128205307495045
 10
-0.3652811206104111
 20
7.148025917477321
 10
0.2403915357817129
 20
11.62653019875358
  0
ENDBLK
  5
28C
330
223
100
AcDbEntity
  8
0
100
AcDbBlockEnd
  0
BLOCK
  5
294
330
291
100
AcDbEntity
  8
0
100
AcDbBlockBegin
  2
block65
 70
     0
 10
0.0
 20
0.0
 30
0.0
  3
block65
  1

  0
LWPOLYLINE
  5
292
330
291
100
AcDbEntity
  8
0
100
AcDbPolyline
 90
        8
 70
     1
 43
0.0
 10
3.006804352082099
 20
7.644859286597693
 10
3.006804352082099
 20
5.640323051876294
 10
1.0022681173607
 20
5.640323051876294
 10
1.0022681173607
 20
6.153111390991057
 10
-1.0022681173607
 20
6.153111390991057
 10
-1.0022681173607
 20
5.640323051876294
 10
-3.006804352082071
 20
5.640323051876294
 10
-3.006804352082071
 20
7.644859286597693
  0
LWPOLYLINE
  5
293
330
291
100
AcDbEntity
  8
0
 62
   252
100
AcDbPolyline
 90
        8
 70
     1
 43
0.0
 10
0.8420749049060987
 20
6.028435577120035
 10
0.8420749049060987
 20
0.0385725159580943
 10
0.5778162404431555
 20
0.0385725159580943
 10
0.5778162404431555
 20
5.896306244888592
 10
-0.6113477496405721
 20
5.896306244888592
 10
-0.6113477496406001
 20
0.0
 10
-0.8756064141035722
 20
0.0
 10
-0.8756064141035722
 20
6.028435577120035
  0
ENDBLK
  5
295
330
291
100
AcDbEntity
  8
0
100
AcDbBlockEnd
  0
BLOCK
  5
350
330
328
100
AcDbEntity
  8
0
100
AcDbBlockBegin
  2
block63_1
 70
     0
 10
0.0
 20
0.0
 30
0.0
  3
block63_1
  1

  0
LINE
  5
329
330
328
100
AcDbEntity
  8
0
 62
   253
370
    13
100
AcDbLine
 10
0.707106781186645
 20
0.0000000000000975
 30
0.0
 11
0.9606007420048179
 21
0.2534939608182718
 31
0.0
1001
CHIEFARC-LNWT
1070
    12
  0
LINE
  5
32A
330
328
100
AcDbEntity
  8
0
 62
   253
370
    13
100
AcDbLine
 10
0.0000000000000568
 20
0.0000000000000568
 30
0.0
 11
0.888158488303185
 21
0.8881584883031852
 31
0.0
1001
CHIEFARC-LNWT
1070
    12
  0
LINE
  5
32B
330
328
100
AcDbEntity
  8
0
 62
   253
370
    13
100
AcDbLine
 10
-0.7071067811865315
 20
0.0000000000000162
 30
0.0
 11
0.8157162346015516
 21
1.5228230157881
 31
0.0
1001
CHIEFARC-LNWT
1070
    12
  0
LINE
  5
32C
330
328
100
AcDbEntity
  8
0
 62
   253
370
    13
100
AcDbLine
 10
-0.9895351995428996
 20
0.4246783628301955
 30
0.0
 11
0.7432739808999185
 21
2.157487543273016
 31
0.0
1001
CHIEFARC-LNWT
1070
    12
  0
LINE
  5
32D
330
328
100
AcDbEntity
  8
0
 62
   253
370
    13
100
AcDbLine
 10
-0.9895351995428996
 20
1.131785144016743
 30
0.0
 11
0.6708317271982854
 21
2.792152070757927
 31
0.0
1001
CHIEFARC-LNWT
1070
    12
  0
LINE
  5
32E
330
328
100
AcDbEntity
  8
0
 62
   253
370
    13
100
AcDbLine
 10
-0.9895351995428996
 20
1.83889192520329
 30
0.0
 11
0.5983894734966521
 21
3.426816598242845
 31
0.0
1001
CHIEFARC-LNWT
1070
    12
  0
LINE
  5
32F
330
328
100
AcDbEntity
  8
0
 62
   253
370
    13
100
AcDbLine
 10
-0.9895351995428996
 20
2.545998706389838
 30
0.0
 11
0.5259472197950191
 21
4.061481125727757
 31
0.0
1001
CHIEFARC-LNWT
1070
    12
  0
LINE
  5
330
330
328
100
AcDbEntity
  8
0
 62
   253
370
    13
100
AcDbLine
 10
-0.9895351995428996
 20
3.253105487576386
 30
0.0
 11
0.4535049660933861
 21
4.696145653212671
 31
0.0
1001
CHIEFARC-LNWT
1070
    12
  0
LINE
  5
331
330
328
100
AcDbEntity
  8
0
 62
   253
370
    13
100
AcDbLine
 10
-0.9895351995428996
 20
3.960212268762932
 30
0.0
 11
0.3810627123917528
 21
5.330810180697586
 31
0.0
1001
CHIEFARC-LNWT
1070
    12
  0
LINE
  5
332
330
328
100
AcDbEntity
  8
0
 62
   253
370
    13
100
AcDbLine
 10
-0.9895351995428996
 20
4.66731904994948
 30
0.0
 11
0.3086204586901198
 21
5.965474708182499
 31
0.0
1001
CHIEFARC-LNWT
1070
    12
  0
LINE
  5
333
330
328
100
AcDbEntity
  8
0
 62
   253
370
    13
100
AcDbLine
 10
-0.9895351995428996
 20
5.374425831136028
 30
0.0
 11
0.2361782049884865
 21
6.600139235667415
 31
0.0
1001
CHIEFARC-LNWT
1070
    12
  0
LINE
  5
334
330
328
100
AcDbEntity
  8
0
 62
   253
370
    13
100
AcDbLine
 10
-0.9895351995428996
 20
6.081532612322576
 30
0.0
 11
0.1637359512868535
 21
7.234803763152327
 31
0.0
1001
CHIEFARC-LNWT
1070
    12
  0
LINE
  5
335
330
328
100
AcDbEntity
  8
0
 62
   253
370
    13
100
AcDbLine
 10
-0.9895351995428996
 20
6.788639393509124
 30
0.0
 11
0.0912936975852203
 21
7.869468290637242
 31
0.0
1001
CHIEFARC-LNWT
1070
    12
  0
LINE
  5
336
330
328
100
AcDbEntity
  8
0
 62
   253
370
    13
100
AcDbLine
 10
-0.9895351995428996
 20
7.49574617469567
 30
0.0
 11
0.0188514438835872
 21
8.504132818122157
 31
0.0
1001
CHIEFARC-LNWT
1070
    12
  0
LINE
  5
337
330
328
100
AcDbEntity
  8
0
 62
   253
370
    13
100
AcDbLine
 10
-0.9895351995428996
 20
8.202852955882218
 30
0.0
 11
-0.0535908098180461
 21
9.138797345607072
 31
0.0
1001
CHIEFARC-LNWT
1070
    12
  0
LINE
  5
338
330
328
100
AcDbEntity
  8
0
 62
   253
370
    13
100
AcDbLine
 10
-0.9895351995428996
 20
8.909959737068764
 30
0.0
 11
-0.126033063519679
 21
9.773461873091984
 31
0.0
1001
CHIEFARC-LNWT
1070
    12
  0
LINE
  5
339
330
328
100
AcDbEntity
  8
0
 62
   253
370
    13
100
AcDbLine
 10
-0.9895351995428996
 20
9.617066518255312
 30
0.0
 11
-0.1984753172213123
 21
10.4081264005769
 31
0.0
1001
CHIEFARC-LNWT
1070
    12
  0
LINE
  5
33A
330
328
100
AcDbEntity
  8
0
 62
   253
370
    13
100
AcDbLine
 10
-0.9895351995428996
 20
10.32417329944186
 30
0.0
 11
-0.3075457951441845
 21
11.00616270384057
 31
0.0
1001
CHIEFARC-LNWT
1070
    12
  0
LINE
  5
33B
330
328
100
AcDbEntity
  8
0
 62
   253
370
    13
100
AcDbLine
 10
-0.2662167391447811
 20
11.04749175983998
 30
0.0
 11
0.1927275447475723
 21
11.50643604373233
 31
0.0
1001
CHIEFARC-LNWT
1070
    12
  0
LINE
  5
33C
330
328
100
AcDbEntity
  8
0
 62
   253
370
    13
100
AcDbLine
 10
0.9606007420048182
 20
0.25349396081827
 30
0.0
 11
0.9895351995428712
 21
0.2824284183563233
 31
0.0
1001
CHIEFARC-LNWT
1070
    12
  0
LINE
  5
33D
330
328
100
AcDbEntity
  8
0
 62
   253
370
    13
100
AcDbLine
 10
0.888158488303185
 20
0.8881584883031843
 30
0.0
 11
0.9895351995428712
 21
0.9895351995428712
 31
0.0
1001
CHIEFARC-LNWT
1070
    12
  0
LINE
  5
33E
330
328
100
AcDbEntity
  8
0
 62
   253
370
    13
100
AcDbLine
 10
0.8157162346015518
 20
1.522823015788099
 30
0.0
 11
0.9895351995428712
 21
1.696641980729417
 31
0.0
1001
CHIEFARC-LNWT
1070
    12
  0
LINE
  5
33F
330
328
100
AcDbEntity
  8
0
 62
   253
370
    13
100
AcDbLine
 10
0.7432739808999187
 20
2.157487543273013
 30
0.0
 11
0.9895351995428712
 21
2.403748761915967
 31
0.0
1001
CHIEFARC-LNWT
1070
    12
  0
LINE
  5
340
330
328
100
AcDbEntity
  8
0
 62
   253
370
    13
100
AcDbLine
 10
0.6708317271982855
 20
2.792152070757928
 30
0.0
 11
0.9895351995428712
 21
3.11085554310251
 31
0.0
1001
CHIEFARC-LNWT
1070
    12
  0
LINE
  5
341
330
328
100
AcDbEntity
  8
0
 62
   253
370
    13
100
AcDbLine
 10
0.5983894734966524
 20
3.426816598242842
 30
0.0
 11
0.9895351995428712
 21
3.817962324289061
 31
0.0
1001
CHIEFARC-LNWT
1070
    12
  0
LINE
  5
342
330
328
100
AcDbEntity
  8
0
 62
   253
370
    13
100
AcDbLine
 10
0.5259472197950192
 20
4.061481125727756
 30
0.0
 11
0.9895351995428712
 21
4.52506910547561
 31
0.0
1001
CHIEFARC-LNWT
1070
    12
  0
LINE
  5
343
330
328
100
AcDbEntity
  8
0
 62
   253
370
    13
100
AcDbLine
 10
0.4535049660933861
 20
4.69614565321267
 30
0.0
 11
0.9895351995428712
 21
5.232175886662156
 31
0.0
1001
CHIEFARC-LNWT
1070
    12
  0
LINE
  5
344
330
328
100
AcDbEntity
  8
0
 62
   253
370
    13
100
AcDbLine
 10
0.381062712391753
 20
5.330810180697584
 30
0.0
 11
0.9895351995428712
 21
5.939282667848703
 31
0.0
1001
CHIEFARC-LNWT
1070
    12
  0
LINE
  5
345
330
328
100
AcDbEntity
  8
0
 62
   253
370
    13
100
AcDbLine
 10
0.3086204586901199
 20
5.965474708182498
 30
0.0
 11
0.9895351995428712
 21
6.646389449035251
 31
0.0
1001
CHIEFARC-LNWT
1070
    12
  0
LINE
  5
346
330
328
100
AcDbEntity
  8
0
 62
   253
370
    13
100
AcDbLine
 10
0.2361782049884865
 20
6.600139235667415
 30
0.0
 11
0.9895351995428712
 21
7.3534962302218
 31
0.0
1001
CHIEFARC-LNWT
1070
    12
  0
LINE
  5
347
330
328
100
AcDbEntity
  8
0
 62
   253
370
    13
100
AcDbLine
 10
0.1637359512868534
 20
7.234803763152328
 30
0.0
 11
0.9895351995428712
 21
8.060603011408347
 31
0.0
1001
CHIEFARC-LNWT
1070
    12
  0
LINE
  5
348
330
328
100
AcDbEntity
  8
0
 62
   253
370
    13
100
AcDbLine
 10
0.0912936975852205
 20
7.869468290637241
 30
0.0
 11
0.9895351995428712
 21
8.767709792594891
 31
0.0
1001
CHIEFARC-LNWT
1070
    12
  0
LINE
  5
349
330
328
100
AcDbEntity
  8
0
 62
   253
370
    13
100
AcDbLine
 10
0.0188514438835871
 20
8.504132818122157
 30
0.0
 11
0.9895351995428712
 21
9.47481657378144
 31
0.0
1001
CHIEFARC-LNWT
1070
    12
  0
LINE
  5
34A
330
328
100
AcDbEntity
  8
0
 62
   253
370
    13
100
AcDbLine
 10
-0.053590809818046
 20
9.138797345607072
 30
0.0
 11
0.9895351995428712
 21
10.18192335496799
 31
0.0
1001
CHIEFARC-LNWT
1070
    12
  0
LINE
  5
34B
330
328
100
AcDbEntity
  8
0
 62
   253
370
    13
100
AcDbLine
 10
-0.1260330635196791
 20
9.773461873091986
 30
0.0
 11
0.9895351995428712
 21
10.88903013615453
 31
0.0
1001
CHIEFARC-LNWT
1070
    12
  0
LINE
  5
34C
330
328
100
AcDbEntity
  8
0
 62
   253
370
    13
100
AcDbLine
 10
-0.1984753172213121
 20
10.4081264005769
 30
0.0
 11
0.3998296369851195
 21
11.00643135478333
 31
0.0
1001
CHIEFARC-LNWT
1070
    12
  0
LWPOLYLINE
  5
34D
330
328
100
AcDbEntity
  8
0
 62
     7
370
    18
100
AcDbPolyline
 90
        8
 70
     1
 43
0.0
 10
-0.9895351995428989
 20
11.00642784934939
 10
-0.2667349194503856
 20
11.00614683728849
 10
-0.2604648004571288
 20
11.50643135478344
 10
0.3645351995428713
 20
11.50643782133807
 10
0.3645351995428712
 20
11.00643135478333
 10
0.9895351995428712
 20
11.00643135478333
 10
0.9895351995428712
 20
0.0000000000001137
 10
-0.9895351995428996
 20
0.0000000000000058
  0
LWPOLYLINE
  5
34E
330
328
100
AcDbEntity
  8
0
100
AcDbPolyline
 90
        4
 70
     0
 43
0.0
 10
-0.7623736211753851
 20
0.0560614793768082
 10
-0.7623736211754419
 20
10.00643135478333
 10
-0.2604648004571288
 20
10.00643135478333
 10
-0.2667349194503856
 20
11.0061468372885
  0
LWPOLYLINE
  5
34F
330
328
100
AcDbEntity
  8
0
100
AcDbPolyline
 90
        8
 70
     1
 43
0.0
 10
-0.9895351995428989
 20
11.00642784934939
 10
-0.2667349194503856
 20
11.00614683728849
 10
-0.2604648004571288
 20
11.50643135478344
 10
0.3645351995428713
 20
11.50643782133807
 10
0.3645351995428712
 20
11.00643135478333
 10
0.9895351995428712
 20
11.00643135478333
 10
0.9895351995428712
 20
0.0000000000001137
 10
-0.9895351995428996
 20
0.0000000000000058
  0
ENDBLK
  5
351
330
328
100
AcDbEntity
  8
0
100
AcDbBlockEnd
  0
BLOCK
  5
39B
330
38E
100
AcDbEntity
  8
0
100
AcDbBlockBegin
  2
block34_1
 70
     0
 10
0.0
 20
0.0
 30
0.0
  3
block34_1
  1

  0
SOLID
  5
38F
330
38E
100
AcDbEntity
  8
0
 62
     7
100
AcDbTrace
 10
-2.155392080373076
 20
11.38833587986255
 30
0.0
 11
-0.9138608348533808
 21
9.977601040287482
 31
0.0
 12
-2.155392080373076
 22
11.38833587986255
 32
0.0
 13
-3.542131957776974
 23
9.999144246213064
 33
0.0
  0
SOLID
  5
390
330
38E
100
AcDbEntity
  8
0
 62
     7
100
AcDbTrace
 10
-0.9138608348533808
 20
9.977601040287482
 30
0.0
 11
-2.155392080373076
 21
11.38833587986255
 31
0.0
 12
2.304085137550487
 22
20.99095895392065
 32
0.0
 13
-2.142131501653921
 23
20.03351407291211
 33
0.0
  0
SOLID
  5
391
330
38E
100
AcDbEntity
  8
0
 62
     7
100
AcDbTrace
 10
-0.9138608348533808
 20
9.977601040287482
 30
0.0
 11
2.304085137550487
 21
20.99095895392065
 31
0.0
 12
0.9418057358673197
 22
10.95530735246791
 32
0.0
 13
2.315424389813984
 23
12.32892600641469
 33
0.0
  0
SOLID
  5
392
330
38E
100
AcDbEntity
  8
0
 62
     7
100
AcDbTrace
 10
2.286042172617272
 20
9.691872013008947
 30
0.0
 11
0.9418057358673195
 21
10.95530735246791
 31
0.0
 12
2.286042172617272
 22
9.691872013008947
 32
0.0
 13
3.542131957777087
 23
10.94796179816876
 33
0.0
  0
SOLID
  5
393
330
38E
100
AcDbEntity
  8
0
 62
     7
100
AcDbTrace
 10
0.9418057358673195
 20
10.95530735246791
 30
0.0
 11
2.286042172617272
 21
9.691872013008947
 31
0.0
 12
-2.161731025513177
 22
0.0040937347157524
 32
0.0
 13
2.309433580608243
 23
0.959624880378783
 33
0.0
  0
SOLID
  5
394
330
38E
100
AcDbEntity
  8
0
 62
     7
100
AcDbTrace
 10
0.9418057358673195
 20
10.95530735246791
 30
0.0
 11
-2.161731025513177
 21
0.0040937347157524
 31
0.0
 12
-0.9138608348533808
 22
9.977601040287482
 32
0.0
 13
-2.163366778538375
 23
8.728095096602488
 33
0.0
  0
LWPOLYLINE
  5
395
330
38E
100
AcDbEntity
  8
0
 62
     7
100
AcDbPolyline
 90
       12
 70
     1
 43
0.0
 10
2.304085137550487
 20
20.99095895392065
 10
2.315424389813984
 20
12.32892600641469
 10
0.9418057358673195
 20
10.95530735246791
 10
3.542131957777087
 20
10.94796179816876
 10
2.286042172617272
 20
9.691872013008947
 10
2.309433580608243
 20
0.959624880378783
 10
-2.161731025513177
 20
0.0040937347157524
 10
-2.163366778538375
 20
8.728095096602488
 10
-0.9138608348533808
 20
9.977601040287482
 10
-3.542131957776974
 20
9.999144246213064
 10
-2.155392080373076
 20
11.38833587986255
 10
-2.142131501653921
 20
20.03351407291211
  0
INSERT
  5
39A
330
38E
100
AcDbEntity
  8
0
  6
Continuous
370
     0
100
AcDbBlockReference
  2
Break_Line
 10
-2.231451014468348
 20
0.0
 30
0.0
1001
CHIEFARC-LNWT
1070
     0
  0
ENDBLK
  5
39C
330
38E
100
AcDbEntity
  8
0
100
AcDbBlockEnd
  0
BLOCK
  5
398
330
396
100
AcDbEntity
  8
0
100
AcDbBlockBegin
  2
Break_Line
 70
     0
 10
0.0
 20
0.0
 30
0.0
  3
Break_Line
  1

  0
LWPOLYLINE
  5
397
330
396
100
AcDbEntity
  8
0
100
AcDbPolyline
 90
        6
 70
     0
 43
0.0
 10
0.0758531737247452
 20
20.02936230674345
 10
0.0758531737247452
 20
11.37178725632516
 10
-1.309784784366492
 20
9.986149298233912
 10
1.309784784366492
 20
9.986149298233954
 10
0.0726287886091581
 20
8.74899330247662
 10
0.0726287886091583
 20
0.0000000000000284
  0
ENDBLK
  5
399
330
396
100
AcDbEntity
  8
0
100
AcDbBlockEnd
  0
BLOCK
  5
3A8
330
39E
100
AcDbEntity
  8
0
100
AcDbBlockBegin
  2
block35_1
 70
     0
 10
0.0
 20
0.0
 30
0.0
  3
block35_1
  1

  0
SOLID
  5
39F
330
39E
100
AcDbEntity
  8
0
 62
     7
100
AcDbTrace
 10
-2.165420654478453
 20
11.38833587986255
 30
0.0
 11
-0.9238894089587575
 21
9.977601040287482
 31
0.0
 12
-2.165420654478453
 22
11.38833587986255
 32
0.0
 13
-3.55216053188235
 23
9.999144246213064
 33
0.0
  0
SOLID
  5
3A0
330
39E
100
AcDbEntity
  8
0
 62
     7
100
AcDbTrace
 10
-0.9238894089587575
 20
9.977601040287482
 30
0.0
 11
-2.165420654478453
 21
11.38833587986255
 31
0.0
 12
2.29405656344511
 22
20.99095895392065
 32
0.0
 13
-2.152160075759298
 23
20.03351407291211
 33
0.0
  0
SOLID
  5
3A1
330
39E
100
AcDbEntity
  8
0
 62
     7
100
AcDbTrace
 10
-0.9238894089587575
 20
9.977601040287482
 30
0.0
 11
2.29405656344511
 21
20.99095895392065
 31
0.0
 12
0.931777161761943
 22
10.95530735246791
 32
0.0
 13
2.305395815708607
 23
12.32892600641469
 33
0.0
  0
SOLID
  5
3A2
330
39E
100
AcDbEntity
  8
0
 62
     7
100
AcDbTrace
 10
2.276013598511895
 20
9.691872013008947
 30
0.0
 11
0.9317771617619428
 21
10.95530735246791
 31
0.0
 12
2.276013598511895
 22
9.691872013008947
 32
0.0
 13
3.532103383671711
 23
10.94796179816876
 33
0.0
  0
SOLID
  5
3A3
330
39E
100
AcDbEntity
  8
0
 62
     7
100
AcDbTrace
 10
0.9317771617619428
 20
10.95530735246791
 30
0.0
 11
2.276013598511895
 21
9.691872013008947
 31
0.0
 12
-2.171759599618554
 22
0.0040937347157524
 32
0.0
 13
2.299405006502866
 23
0.959624880378783
 33
0.0
  0
SOLID
  5
3A4
330
39E
100
AcDbEntity
  8
0
 62
     7
100
AcDbTrace
 10
0.9317771617619428
 20
10.95530735246791
 30
0.0
 11
-2.171759599618554
 21
0.0040937347157524
 31
0.0
 12
-0.9238894089587575
 22
9.977601040287482
 32
0.0
 13
-2.173395352643752
 23
8.728095096602488
 33
0.0
  0
LWPOLYLINE
  5
3A5
330
39E
100
AcDbEntity
  8
0
 62
     7
100
AcDbPolyline
 90
       12
 70
     1
 43
0.0
 10
2.29405656344511
 20
20.99095895392065
 10
2.305395815708607
 20
12.32892600641469
 10
0.9317771617619428
 20
10.95530735246791
 10
3.532103383671711
 20
10.94796179816876
 10
2.276013598511895
 20
9.691872013008947
 10
2.299405006502866
 20
0.959624880378783
 10
-2.171759599618554
 20
0.0040937347157524
 10
-2.173395352643752
 20
8.728095096602488
 10
-0.9238894089587575
 20
9.977601040287482
 10
-3.55216053188235
 20
9.999144246213064
 10
-2.165420654478453
 20
11.38833587986255
 10
-2.152160075759298
 20
20.03351407291211
  0
INSERT
  5
3A6
330
39E
100
AcDbEntity
  8
0
100
AcDbBlockReference
  2
Break_Line
 10
-2.241479588573725
 20
0.0
 30
0.0
  0
INSERT
  5
3A7
330
39E
100
AcDbEntity
  8
0
100
AcDbBlockReference
  2
Break_Line
 10
2.242375747515894
 20
0.9608261434477754
 30
0.0
  0
ENDBLK
  5
3A9
330
39E
100
AcDbEntity
  8
0
100
AcDbBlockEnd
  0
ENDSEC
  0
SECTION
  2
ENTITIES
  0
INSERT
  5
FB
330
1F
100
AcDbEntity
  8
_DEFAULT_CAD_LAYER
  6
Continuous
370
     0
100
AcDbBlockReference
  2
block59
 10
584.3664659695967
 20
546.8952537928112
 30
0.0
 41
-1.0
1001
CHIEFARC-LNWT
1070
     0
  0
INSERT
  5
FC
330
1F
100
AcDbEntity
  8
_DEFAULT_CAD_LAYER
100
AcDbBlockReference
  2
block59
 10
584.4026656541216
 20
583.3348688863384
 30
0.0
 41
-1.0
  0
INSERT
  5
1B4
330
1F
100
AcDbEntity
  8
_DEFAULT_CAD_LAYER
  6
Continuous
370
     0
100
AcDbBlockReference
  2
block66
 10
584.3664659695967
 20
554.895253792811
 30
0.0
 41
-1.0
1001
CHIEFARC-LNWT
1070
     0
  0
INSERT
  5
1B5
330
1F
100
AcDbEntity
  8
_DEFAULT_CAD_LAYER
100
AcDbBlockReference
  2
block66
 10
584.4026656541216
 20
591.3348688863382
 30
0.0
 41
-1.0
  0
INSERT
  5
1DE
330
1F
100
AcDbEntity
  8
_DEFAULT_CAD_LAYER
  6
Continuous
370
     0
100
AcDbBlockReference
  2
block50
 10
577.6187302968412
 20
594.3719954360301
 30
0.0
 41
-1.0
1001
CHIEFARC-LNWT
1070
     0
  0
INSERT
  5
1DF
330
1F
100
AcDbEntity
  8
_DEFAULT_CAD_LAYER
100
AcDbBlockReference
  2
block50
 10
591.222800695927
 20
594.2985201845781
 30
0.0
  0
INSERT
  5
1E0
330
1F
100
AcDbEntity
  8
_DEFAULT_CAD_LAYER
100
AcDbBlockReference
  2
block50
 10
577.5463309277914
 20
555.7035180718751
 30
0.0
 41
-1.0
  0
INSERT
  5
1E1
330
1F
100
AcDbEntity
  8
_DEFAULT_CAD_LAYER
100
AcDbBlockReference
  2
block50
 10
591.1866010114021
 20
555.7567937042334
 30
0.0
  0
SOLID
  5
1E2
330
1F
100
AcDbEntity
  8
_DEFAULT_CAD_LAYER
 62
     7
100
AcDbTrace
 10
592.1942360532074
 20
583.3348688863384
 30
0.0
 11
592.1942360532074
 21
581.8348688863384
 31
0.0
 12
586.6942360532074
 22
583.3348688863384
 32
0.0
 13
586.6942360532074
 23
581.8348688863384
 33
0.0
  0
LINE
  5
1E3
330
1F
100
AcDbEntity
  8
_DEFAULT_CAD_LAYER
 62
     7
100
AcDbLine
 10
592.1942360532074
 20
583.3348688863384
 30
0.0
 11
586.6942360532074
 21
581.8348688863384
 31
0.0
  0
LINE
  5
1E4
330
1F
100
AcDbEntity
  8
_DEFAULT_CAD_LAYER
 62
     7
100
AcDbLine
 10
592.1942360532074
 20
581.8348688863384
 30
0.0
 11
586.6942360532074
 21
583.3348688863384
 31
0.0
  0
LINE
  5
1E5
330
1F
100
AcDbEntity
  8
_DEFAULT_CAD_LAYER
 62
     7
100
AcDbLine
 10
592.1942360532074
 20
583.3348688863384
 30
0.0
 11
592.1942360532074
 21
581.8348688863384
 31
0.0
  0
LINE
  5
1E6
330
1F
100
AcDbEntity
  8
_DEFAULT_CAD_LAYER
 62
     7
100
AcDbLine
 10
592.1942360532074
 20
581.8348688863384
 30
0.0
 11
586.6942360532074
 21
581.8348688863384
 31
0.0
  0
LINE
  5
1E7
330
1F
100
AcDbEntity
  8
_DEFAULT_CAD_LAYER
 62
     7
100
AcDbLine
 10
586.6942360532074
 20
581.8348688863384
 30
0.0
 11
586.6942360532074
 21
583.3348688863384
 31
0.0
  0
LINE
  5
1E8
330
1F
100
AcDbEntity
  8
_DEFAULT_CAD_LAYER
 62
     7
100
AcDbLine
 10
586.6942360532074
 20
583.3348688863384
 30
0.0
 11
592.1942360532074
 21
583.3348688863384
 31
0.0
  0
INSERT
  5
213
330
1F
100
AcDbEntity
  8
_DEFAULT_CAD_LAYER
  6
Continuous
370
     0
100
AcDbBlockReference
  2
block63
 10
577.5989923057555
 20
583.3539174836865
 30
0.0
 41
-0.9983445269818587
 42
0.9983445269818587
1001
CHIEFARC-LNWT
1070
     0
  0
INSERT
  5
214
330
1F
100
AcDbEntity
  8
_DEFAULT_CAD_LAYER
100
AcDbBlockReference
  2
block63
 10
591.2047008536646
 20
583.3348688863383
 30
0.0
  0
SOLID
  5
215
330
1F
100
AcDbEntity
  8
_DEFAULT_CAD_LAYER
 62
     7
100
AcDbTrace
 10
586.6942360532074
 20
583.3348688863384
 30
0.0
 11
586.6942360532074
 21
581.8348688863384
 31
0.0
 12
581.1942360532074
 22
583.3348688863384
 32
0.0
 13
581.1942360532074
 23
581.8348688863384
 33
0.0
  0
LINE
  5
216
330
1F
100
AcDbEntity
  8
_DEFAULT_CAD_LAYER
 62
     7
100
AcDbLine
 10
586.6942360532074
 20
583.3348688863384
 30
0.0
 11
581.1942360532074
 21
581.8348688863384
 31
0.0
  0
LINE
  5
217
330
1F
100
AcDbEntity
  8
_DEFAULT_CAD_LAYER
 62
     7
100
AcDbLine
 10
586.6942360532074
 20
581.8348688863384
 30
0.0
 11
581.1942360532074
 21
583.3348688863384
 31
0.0
  0
LINE
  5
218
330
1F
100
AcDbEntity
  8
_DEFAULT_CAD_LAYER
 62
     7
100
AcDbLine
 10
586.6942360532074
 20
583.3348688863384
 30
0.0
 11
586.6942360532074
 21
581.8348688863384
 31
0.0
  0
LINE
  5
219
330
1F
100
AcDbEntity
  8
_DEFAULT_CAD_LAYER
 62
     7
100
AcDbLine
 10
586.6942360532074
 20
581.8348688863384
 30
0.0
 11
581.1942360532074
 21
581.8348688863384
 31
0.0
  0
LINE
  5
21A
330
1F
100
AcDbEntity
  8
_DEFAULT_CAD_LAYER
 62
     7
100
AcDbLine
 10
581.1942360532074
 20
581.8348688863384
 30
0.0
 11
581.1942360532074
 21
583.3348688863384
 31
0.0
  0
LINE
  5
21B
330
1F
100
AcDbEntity
  8
_DEFAULT_CAD_LAYER
 62
     7
100
AcDbLine
 10
581.1942360532074
 20
583.3348688863384
 30
0.0
 11
586.6942360532074
 21
583.3348688863384
 31
0.0
  0
SOLID
  5
21C
330
1F
100
AcDbEntity
  8
_DEFAULT_CAD_LAYER
 62
     7
100
AcDbTrace
 10
581.1942360532074
 20
583.3348688863384
 30
0.0
 11
581.1942360532074
 21
581.8348688863384
 31
0.0
 12
575.9651225900346
 22
583.3348688863384
 32
0.0
 13
575.9651225900346
 23
581.8348688863384
 33
0.0
  0
LINE
  5
21D
330
1F
100
AcDbEntity
  8
_DEFAULT_CAD_LAYER
 62
     7
100
AcDbLine
 10
581.1942360532074
 20
583.3348688863384
 30
0.0
 11
575.9651225900346
 21
581.8348688863384
 31
0.0
  0
LINE
  5
21E
330
1F
100
AcDbEntity
  8
_DEFAULT_CAD_LAYER
 62
     7
100
AcDbLine
 10
581.1942360532074
 20
581.8348688863384
 30
0.0
 11
575.9651225900346
 21
583.3348688863384
 31
0.0
  0
LINE
  5
21F
330
1F
100
AcDbEntity
  8
_DEFAULT_CAD_LAYER
 62
     7
100
AcDbLine
 10
581.1942360532074
 20
583.3348688863384
 30
0.0
 11
581.1942360532074
 21
581.8348688863384
 31
0.0
  0
LINE
  5
220
330
1F
100
AcDbEntity
  8
_DEFAULT_CAD_LAYER
 62
     7
100
AcDbLine
 10
581.1942360532074
 20
581.8348688863384
 30
0.0
 11
575.9651225900346
 21
581.8348688863384
 31
0.0
  0
LINE
  5
221
330
1F
100
AcDbEntity
  8
_DEFAULT_CAD_LAYER
 62
     7
100
AcDbLine
 10
575.9651225900346
 20
581.8348688863384
 30
0.0
 11
575.9651225900346
 21
583.3348688863384
 31
0.0
  0
LINE
  5
222
330
1F
100
AcDbEntity
  8
_DEFAULT_CAD_LAYER
 62
     7
100
AcDbLine
 10
575.9651225900346
 20
583.3348688863384
 30
0.0
 11
581.1942360532074
 21
583.3348688863384
 31
0.0
  0
INSERT
  5
28D
330
1F
100
AcDbEntity
  8
_DEFAULT_CAD_LAYER
  6
Continuous
370
     0
100
AcDbBlockReference
  2
5__Bevel
 10
576.2549660948353
 20
583.5134400638428
 30
0.0
1001
CHIEFARC-LNWT
1070
     0
  0
LINE
  5
28E
330
1F
100
AcDbEntity
  8
_DEFAULT_CAD_LAYER
370
     9
100
AcDbLine
 10
578.5856102355253
 20
585.7263528803397
 30
0.0
 11
578.5901656541216
 21
583.3348688863383
 31
0.0
1001
CHIEFARC-LNWT
1070
     8
  0
LWPOLYLINE
  5
28F
330
1F
100
AcDbEntity
  8
_DEFAULT_CAD_LAYER
370
     9
100
AcDbPolyline
 90
        3
 70
     0
 43
0.0
 10
578.5901656541216
 20
583.3348688863384
 10
575.7491483643116
 20
583.3348688863384
 10
575.3773719587995
 20
582.9630924808263
1001
CHIEFARC-LNWT
1070
     8
  0
LWPOLYLINE
  5
290
330
1F
100
AcDbEntity
  8
_DEFAULT_CAD_LAYER
 62
   136
100
AcDbPolyline
 90
        6
 70
     1
 43
0.0
 10
592.6881661415493
 20
598.2992051644012
 10
592.6881661415493
 20
581.3080101254405
 10
587.346306598189
 20
581.3080101254404
 10
587.346306598189
 20
581.8348688863385
 10
592.1942360532074
 20
581.8348688863384
 10
592.1942360532074
 20
598.2992051644011
  0
INSERT
  5
296
330
1F
100
AcDbEntity
  8
_DEFAULT_CAD_LAYER
  6
Continuous
370
     0
100
AcDbBlockReference
  2
block65
 10
584.3174291649159
 20
574.1076268226209
 30
0.0
 41
-1.0
1001
CHIEFARC-LNWT
1070
     0
  0
SOLID
  5
297
330
1F
100
AcDbEntity
  8
_DEFAULT_CAD_LAYER
 62
     7
100
AcDbTrace
 10
581.1942360532074
 20
562.520253792811
 30
0.0
 11
581.1942360532074
 21
564.020253792811
 31
0.0
 12
586.6942360532074
 22
562.520253792811
 32
0.0
 13
586.6942360532074
 23
564.020253792811
 33
0.0
  0
LINE
  5
298
330
1F
100
AcDbEntity
  8
_DEFAULT_CAD_LAYER
 62
     7
100
AcDbLine
 10
581.1942360532074
 20
562.520253792811
 30
0.0
 11
586.6942360532074
 21
564.020253792811
 31
0.0
  0
LINE
  5
299
330
1F
100
AcDbEntity
  8
_DEFAULT_CAD_LAYER
 62
     7
100
AcDbLine
 10
581.1942360532074
 20
564.020253792811
 30
0.0
 11
586.6942360532074
 21
562.520253792811
 31
0.0
  0
LINE
  5
29A
330
1F
100
AcDbEntity
  8
_DEFAULT_CAD_LAYER
 62
     7
100
AcDbLine
 10
581.1942360532074
 20
562.520253792811
 30
0.0
 11
581.1942360532074
 21
564.020253792811
 31
0.0
  0
LINE
  5
29B
330
1F
100
AcDbEntity
  8
_DEFAULT_CAD_LAYER
 62
     7
100
AcDbLine
 10
581.1942360532074
 20
564.020253792811
 30
0.0
 11
586.6942360532074
 21
564.020253792811
 31
0.0
  0
LINE
  5
29C
330
1F
100
AcDbEntity
  8
_DEFAULT_CAD_LAYER
 62
     7
100
AcDbLine
 10
586.6942360532074
 20
564.020253792811
 30
0.0
 11
586.6942360532074
 21
562.520253792811
 31
0.0
  0
LINE
  5
29D
330
1F
100
AcDbEntity
  8
_DEFAULT_CAD_LAYER
 62
     7
100
AcDbLine
 10
586.6942360532074
 20
562.520253792811
 30
0.0
 11
581.1942360532074
 21
562.520253792811
 31
0.0
  0
SOLID
  5
29E
330
1F
100
AcDbEntity
  8
_DEFAULT_CAD_LAYER
 62
     7
100
AcDbTrace
 10
586.6942360532074
 20
562.520253792811
 30
0.0
 11
586.6942360532074
 21
564.020253792811
 31
0.0
 12
592.1942360532074
 22
562.520253792811
 32
0.0
 13
592.1942360532074
 23
564.020253792811
 33
0.0
  0
LINE
  5
29F
330
1F
100
AcDbEntity
  8
_DEFAULT_CAD_LAYER
 62
     7
100
AcDbLine
 10
586.6942360532074
 20
562.520253792811
 30
0.0
 11
592.1942360532074
 21
564.020253792811
 31
0.0
  0
LINE
  5
2A0
330
1F
100
AcDbEntity
  8
_DEFAULT_CAD_LAYER
 62
     7
100
AcDbLine
 10
586.6942360532074
 20
564.020253792811
 30
0.0
 11
592.1942360532074
 21
562.520253792811
 31
0.0
  0
LINE
  5
2A1
330
1F
100
AcDbEntity
  8
_DEFAULT_CAD_LAYER
 62
     7
100
AcDbLine
 10
586.6942360532074
 20
562.520253792811
 30
0.0
 11
586.6942360532074
 21
564.020253792811
 31
0.0
  0
LINE
  5
2A2
330
1F
100
AcDbEntity
  8
_DEFAULT_CAD_LAYER
 62
     7
100
AcDbLine
 10
586.6942360532074
 20
564.020253792811
 30
0.0
 11
592.1942360532074
 21
564.020253792811
 31
0.0
  0
LINE
  5
2A3
330
1F
100
AcDbEntity
  8
_DEFAULT_CAD_LAYER
 62
     7
100
AcDbLine
 10
592.1942360532074
 20
564.020253792811
 30
0.0
 11
592.1942360532074
 21
562.520253792811
 31
0.0
  0
LINE
  5
2A4
330
1F
100
AcDbEntity
  8
_DEFAULT_CAD_LAYER
 62
     7
100
AcDbLine
 10
592.1942360532074
 20
562.520253792811
 30
0.0
 11
586.6942360532074
 21
562.520253792811
 31
0.0
  0
LWPOLYLINE
  5
2A5
330
1F
100
AcDbEntity
  8
_DEFAULT_CAD_LAYER
 62
   136
100
AcDbPolyline
 90
        6
 70
     1
 43
0.0
 10
592.1942360532074
 20
564.020253792811
 10
587.346306598189
 20
564.0202537928109
 10
587.346306598189
 20
564.5471125537091
 10
592.6881661415493
 20
564.5471125537089
 10
592.6881661415493
 20
545.3799005239212
 10
592.1942360532074
 20
545.3799005239213
  0
INSERT
  5
2A6
330
1F
100
AcDbEntity
  8
_DEFAULT_CAD_LAYER
100
AcDbBlockReference
  2
block65
 10
584.3174291649159
 20
571.7474958565285
 30
0.0
 50
180.0
  0
LINE
  5
2A7
330
1F
100
AcDbEntity
  8
_DEFAULT_CAD_LAYER
 62
     7
370
     0
100
AcDbLine
 10
580.7610984610332
 20
562.520253792811
 30
0.0
 11
580.8124705057133
 21
562.5814766116175
 31
0.0
  0
LINE
  5
2A8
330
1F
100
AcDbEntity
  8
_DEFAULT_CAD_LAYER
 62
     7
370
     0
100
AcDbLine
 10
579.8556339390543
 20
562.5881001138033
 30
0.0
 11
579.9158952774625
 21
562.6599167803457
 31
0.0
  0
LINE
  5
2A9
330
1F
100
AcDbEntity
  8
_DEFAULT_CAD_LAYER
 62
     7
370
     0
100
AcDbLine
 10
580.5787699999518
 20
563.4499001123121
 30
0.0
 11
580.6390313383599
 21
563.5217167788546
 31
0.0
  0
LINE
  5
2AA
330
1F
100
AcDbEntity
  8
_DEFAULT_CAD_LAYER
 62
     7
370
     0
100
AcDbLine
 10
578.9590587108022
 20
562.6665402825327
 30
0.0
 11
579.0193200492103
 21
562.7383569490751
 31
0.0
  0
LINE
  5
2AB
330
1F
100
AcDbEntity
  8
_DEFAULT_CAD_LAYER
 62
     7
370
     0
100
AcDbLine
 10
579.6821947716994
 20
563.5283402810414
 30
0.0
 11
579.7424561101076
 21
563.6001569475839
 31
0.0
  0
LINE
  5
2AC
330
1F
100
AcDbEntity
  8
_DEFAULT_CAD_LAYER
 62
     7
370
     0
100
AcDbLine
 10
579.8556341872194
 20
562.588100237402
 30
0.0
 11
579.9303487895763
 21
562.581563556696
 31
0.0
  0
LINE
  5
2AD
330
1F
100
AcDbEntity
  8
_DEFAULT_CAD_LAYER
 62
     7
370
     0
100
AcDbLine
 10
578.9590589589368
 20
562.666540405875
 30
0.0
 11
579.0337735612937
 21
562.6600037251688
 31
0.0
  0
LINE
  5
2AE
330
1F
100
AcDbEntity
  8
_DEFAULT_CAD_LAYER
 62
     7
370
     0
100
AcDbLine
 10
580.5787702484859
 20
563.4499002360542
 30
0.0
 11
580.6534848508427
 21
563.4433635553481
 31
0.0
  0
LINE
  5
2AF
330
1F
100
AcDbEntity
  8
_DEFAULT_CAD_LAYER
 62
     7
370
     0
100
AcDbLine
 10
579.6821950202032
 20
563.528340404527
 30
0.0
 11
579.75690962256
 21
563.521803723821
 31
0.0
  0
LINE
  5
2B0
330
1F
100
AcDbEntity
  8
_DEFAULT_CAD_LAYER
 62
     7
370
     0
100
AcDbLine
 10
578.8035374137631
 20
563.6052129842113
 30
0.0
 11
578.8603343942775
 21
563.6002438922937
 31
0.0
  0
LINE
  5
2B1
330
1F
100
AcDbEntity
  8
_DEFAULT_CAD_LAYER
 62
     7
370
     0
100
AcDbLine
 10
579.0342074435492
 20
562.6595469297215
 30
0.0
 11
579.0197542412357
 21
562.7379002858305
 31
0.0
  0
LINE
  5
2B2
330
1F
100
AcDbEntity
  8
_DEFAULT_CAD_LAYER
 62
     7
370
     0
100
AcDbLine
 10
578.8607690107992
 20
563.599787230075
 30
0.0
 11
578.8579258540761
 21
563.6152004835787
 31
0.0
  0
LINE
  5
2B3
330
1F
100
AcDbEntity
  8
_DEFAULT_CAD_LAYER
 62
     7
370
     0
100
AcDbLine
 10
579.9307826034416
 20
562.5811060569439
 30
0.0
 11
579.9163294011281
 21
562.6594594130531
 31
0.0
  0
LINE
  5
2B4
330
1F
100
AcDbEntity
  8
_DEFAULT_CAD_LAYER
 62
     7
370
     0
100
AcDbLine
 10
579.7573441706917
 20
563.5213463572976
 30
0.0
 11
579.7428909683782
 21
563.5996997134067
 31
0.0
  0
LINE
  5
2B5
330
1F
100
AcDbEntity
  8
_DEFAULT_CAD_LAYER
 62
     7
370
     0
100
AcDbLine
 10
580.8241133366524
 20
562.520253792811
 30
0.0
 11
580.8129045610204
 21
562.5810185402756
 31
0.0
  0
LINE
  5
2B6
330
1F
100
AcDbEntity
  8
_DEFAULT_CAD_LAYER
 62
     7
370
     0
100
AcDbLine
 10
580.653919330584
 20
563.4429054845201
 30
0.0
 11
580.6394661282706
 21
563.5212588406292
 31
0.0
  0
LINE
  5
2B7
330
1F
100
AcDbEntity
  8
_DEFAULT_CAD_LAYER
 62
     7
370
     0
100
AcDbLine
 10
580.2942445759497
 20
563.5123651967937
 30
0.0
 11
580.3916051952388
 21
563.6138358843673
 31
0.0
  0
LINE
  5
2B8
330
1F
100
AcDbEntity
  8
_DEFAULT_CAD_LAYER
 62
     7
370
     0
100
AcDbLine
 10
580.4058545366263
 20
563.4946758731327
 30
0.0
 11
580.3920443060432
 21
563.6133881355012
 31
0.0
  0
LINE
  5
2B9
330
1F
100
AcDbEntity
  8
_DEFAULT_CAD_LAYER
 62
     7
370
     0
100
AcDbLine
 10
580.2942445539815
 20
563.512365334318
 30
0.0
 11
580.4054154965527
 21
563.495123770357
 31
0.0
  0
LINE
  5
2BA
330
1F
100
AcDbEntity
  8
_DEFAULT_CAD_LAYER
 62
     7
370
     0
100
AcDbLine
 10
580.4531548562372
 20
562.520253792811
 30
0.0
 11
580.5134893277345
 21
562.5434140264917
 31
0.0
  0
LINE
  5
2BB
330
1F
100
AcDbEntity
  8
_DEFAULT_CAD_LAYER
 62
     7
370
     0
100
AcDbLine
 10
578.6295543677929
 20
562.6099267013151
 30
0.0
 11
578.7170775327771
 21
562.6435236965849
 31
0.0
  0
LINE
  5
2BC
330
1F
100
AcDbEntity
  8
_DEFAULT_CAD_LAYER
 62
     7
370
     0
100
AcDbLine
 10
579.6798323476022
 20
563.0130906445535
 30
0.0
 11
579.7673555125864
 21
563.0466876398234
 31
0.0
  0
LINE
  5
2BD
330
1F
100
AcDbEntity
  8
_DEFAULT_CAD_LAYER
 62
     7
370
     0
100
AcDbLine
 10
580.7301103274116
 20
563.416254587792
 30
0.0
 11
580.8176334923957
 21
563.4498515830619
 31
0.0
  0
LINE
  5
2BE
330
1F
100
AcDbEntity
  8
_DEFAULT_CAD_LAYER
 62
     7
370
     0
100
AcDbLine
 10
578.9336985324542
 20
563.5163642578851
 30
0.0
 11
579.0212216974382
 21
563.549961253155
 31
0.0
  0
LINE
  5
2BF
330
1F
100
AcDbEntity
  8
_DEFAULT_CAD_LAYER
 62
     7
370
     0
100
AcDbLine
 10
578.6295546385991
 20
562.6099265657583
 30
0.0
 11
578.6917324565408
 21
562.567987097998
 31
0.0
  0
LINE
  5
2C0
330
1F
100
AcDbEntity
  8
_DEFAULT_CAD_LAYER
 62
     7
370
     0
100
AcDbLine
 10
579.6798326188007
 20
563.0130905089434
 30
0.0
 11
579.7420104367422
 21
562.971151041183
 31
0.0
  0
LINE
  5
2C1
330
1F
100
AcDbEntity
  8
_DEFAULT_CAD_LAYER
 62
     7
370
     0
100
AcDbLine
 10
578.9336988035011
 20
563.516364122067
 30
0.0
 11
578.9958766214428
 21
563.4744246543067
 31
0.0
  0
LINE
  5
2C2
330
1F
100
AcDbEntity
  8
_DEFAULT_CAD_LAYER
 62
     7
370
     0
100
AcDbLine
 10
580.7301105990022
 20
563.4162544521281
 30
0.0
 11
580.7922884169437
 21
563.3743149843679
 31
0.0
  0
LINE
  5
2C3
330
1F
100
AcDbEntity
  8
_DEFAULT_CAD_LAYER
 62
     7
370
     0
100
AcDbLine
 10
580.5063058662339
 20
562.520253792811
 30
0.0
 11
580.5139243169979
 21
562.5429589202408
 31
0.0
  0
LINE
  5
2C4
330
1F
100
AcDbEntity
  8
_DEFAULT_CAD_LAYER
 62
     7
370
     0
100
AcDbLine
 10
580.7927237834483
 20
563.3738597961958
 30
0.0
 11
580.818069188694
 21
563.4493962370943
 31
0.0
  0
LINE
  5
2C5
330
1F
100
AcDbEntity
  8
_DEFAULT_CAD_LAYER
 62
     7
370
     0
100
AcDbLine
 10
579.7424454977214
 20
562.9706966753084
 30
0.0
 11
579.7677909029671
 21
563.0462331162068
 31
0.0
  0
LINE
  5
2C6
330
1F
100
AcDbEntity
  8
_DEFAULT_CAD_LAYER
 62
     7
370
     0
100
AcDbLine
 10
578.6921672119946
 20
562.567533554421
 30
0.0
 11
578.7175126172403
 21
562.6430699953195
 31
0.0
  0
LINE
  5
2C7
330
1F
100
AcDbEntity
  8
_DEFAULT_CAD_LAYER
 62
     7
370
     0
100
AcDbLine
 10
578.9963120836909
 20
563.4739708712746
 30
0.0
 11
579.0216574889366
 21
563.549507312173
 31
0.0
  0
LINE
  5
2C8
330
1F
100
AcDbEntity
  8
_DEFAULT_CAD_LAYER
 62
     7
370
     0
100
AcDbLine
 10
581.0203017530362
 20
562.719788908144
 30
0.0
 11
581.0203017530362
 21
562.719788908144
 31
0.0
  0
LINE
  5
2C9
330
1F
100
AcDbEntity
  8
_DEFAULT_CAD_LAYER
 62
     7
370
     0
100
AcDbLine
 10
581.1060847815623
 20
562.7856125410426
 30
0.0
 11
581.1060847815623
 21
562.7856125410426
 31
0.0
  0
LINE
  5
2CA
330
1F
100
AcDbEntity
  8
_DEFAULT_CAD_LAYER
 62
     7
370
     0
100
AcDbLine
 10
581.1942360532073
 20
562.8532533908004
 30
0.0
 11
581.1942360532073
 21
562.8532533908004
 31
0.0
  0
LINE
  5
2CB
330
1F
100
AcDbEntity
  8
_DEFAULT_CAD_LAYER
 62
     7
370
     0
100
AcDbLine
 10
580.2331677011383
 20
562.520253792811
 30
0.0
 11
580.2331677011383
 21
562.520253792811
 31
0.0
  0
LINE
  5
2CC
330
1F
100
AcDbEntity
  8
_DEFAULT_CAD_LAYER
 62
     7
370
     0
100
AcDbLine
 10
580.3048473265146
 20
562.5752555038505
 30
0.0
 11
580.3048473265146
 21
562.5752555038505
 31
0.0
  0
LINE
  5
2CD
330
1F
100
AcDbEntity
  8
_DEFAULT_CAD_LAYER
 62
     7
370
     0
100
AcDbLine
 10
580.3785058372541
 20
562.6317756670352
 30
0.0
 11
580.3785058372541
 21
562.6317756670352
 31
0.0
  0
LINE
  5
2CE
330
1F
100
AcDbEntity
  8
_DEFAULT_CAD_LAYER
 62
     7
370
     0
100
AcDbLine
 10
581.0355015721829
 20
563.135906225433
 30
0.0
 11
581.0355015721829
 21
563.135906225433
 31
0.0
  0
LINE
  5
2CF
330
1F
100
AcDbEntity
  8
_DEFAULT_CAD_LAYER
 62
     7
370
     0
100
AcDbLine
 10
581.1137881694808
 20
563.1959776443368
 30
0.0
 11
581.1137881694808
 21
563.1959776443368
 31
0.0
  0
LINE
  5
2D0
330
1F
100
AcDbEntity
  8
_DEFAULT_CAD_LAYER
 62
     7
370
     0
100
AcDbLine
 10
581.1942360532073
 20
563.2577074766459
 30
0.0
 11
581.1942360532073
 21
563.2577074766459
 31
0.0
  0
LINE
  5
2D1
330
1F
100
AcDbEntity
  8
_DEFAULT_CAD_LAYER
 62
     7
370
     0
100
AcDbLine
 10
579.706072874315
 20
562.520253792811
 30
0.0
 11
579.706072874315
 21
562.520253792811
 31
0.0
  0
LINE
  5
2D2
330
1F
100
AcDbEntity
  8
_DEFAULT_CAD_LAYER
 62
     7
370
     0
100
AcDbLine
 10
580.0452079529231
 20
562.7804812911972
 30
0.0
 11
580.0452079529231
 21
562.7804812911972
 31
0.0
  0
LINE
  5
2D3
330
1F
100
AcDbEntity
  8
_DEFAULT_CAD_LAYER
 62
     7
370
     0
100
AcDbLine
 10
580.3937056564007
 20
563.0478929843243
 30
0.0
 11
580.3937056564007
 21
563.0478929843243
 31
0.0
  0
LINE
  5
2D4
330
1F
100
AcDbEntity
  8
_DEFAULT_CAD_LAYER
 62
     7
370
     0
100
AcDbLine
 10
581.0507013913293
 20
563.5520235427222
 30
0.0
 11
581.0507013913293
 21
563.5520235427222
 31
0.0
  0
LINE
  5
2D5
330
1F
100
AcDbEntity
  8
_DEFAULT_CAD_LAYER
 62
     7
370
     0
100
AcDbLine
 10
581.1214915573993
 20
563.6063427476311
 30
0.0
 11
581.1214915573993
 21
563.6063427476311
 31
0.0
  0
LINE
  5
2D6
330
1F
100
AcDbEntity
  8
_DEFAULT_CAD_LAYER
 62
     7
370
     0
100
AcDbLine
 10
581.1942360532073
 20
563.6621615624915
 30
0.0
 11
581.1942360532073
 21
563.6621615624915
 31
0.0
  0
LINE
  5
2D7
330
1F
100
AcDbEntity
  8
_DEFAULT_CAD_LAYER
 62
     7
370
     0
100
AcDbLine
 10
579.1789780474919
 20
562.520253792811
 30
0.0
 11
579.1789780474919
 21
562.520253792811
 31
0.0
  0
LINE
  5
2D8
330
1F
100
AcDbEntity
  8
_DEFAULT_CAD_LAYER
 62
     7
370
     0
100
AcDbLine
 10
579.7855685793317
 20
562.9857070785441
 30
0.0
 11
579.7855685793317
 21
562.9857070785441
 31
0.0
  0
LINE
  5
2D9
330
1F
100
AcDbEntity
  8
_DEFAULT_CAD_LAYER
 62
     7
370
     0
100
AcDbLine
 10
580.4089054755473
 20
563.4640103016134
 30
0.0
 11
580.4089054755473
 21
563.4640103016134
 31
0.0
  0
LINE
  5
2DA
330
1F
100
AcDbEntity
  8
_DEFAULT_CAD_LAYER
 62
     7
370
     0
100
AcDbLine
 10
581.065901210476
 20
563.9681408600113
 30
0.0
 11
581.065901210476
 21
563.9681408600113
 31
0.0
  0
LINE
  5
2DB
330
1F
100
AcDbEntity
  8
_DEFAULT_CAD_LAYER
 62
     7
370
     0
100
AcDbLine
 10
581.1102747721098
 20
564.0021898914057
 30
0.0
 11
581.1102747721098
 21
564.0021898914057
 31
0.0
  0
LINE
  5
2DC
330
1F
100
AcDbEntity
  8
_DEFAULT_CAD_LAYER
 62
     7
370
     0
100
AcDbLine
 10
581.1558733707213
 20
564.0371789267343
 30
0.0
 11
581.1558733707213
 21
564.0371789267343
 31
0.0
  0
LINE
  5
2DD
330
1F
100
AcDbEntity
  8
_DEFAULT_CAD_LAYER
 62
     7
370
     0
100
AcDbLine
 10
579.1130888998625
 20
562.8741493574656
 30
0.0
 11
579.1130888998625
 21
562.8741493574656
 31
0.0
  0
LINE
  5
2DE
330
1F
100
AcDbEntity
  8
_DEFAULT_CAD_LAYER
 62
     7
370
     0
100
AcDbLine
 10
579.7596718721999
 20
563.3702899221078
 30
0.0
 11
579.7596718721999
 21
563.3702899221078
 31
0.0
  0
LINE
  5
2DF
330
1F
100
AcDbEntity
  8
_DEFAULT_CAD_LAYER
 62
     7
370
     0
100
AcDbLine
 10
580.4241052946938
 20
563.8801276189025
 30
0.0
 11
580.4241052946938
 21
563.8801276189025
 31
0.0
  0
LINE
  5
2E0
330
1F
100
AcDbEntity
  8
_DEFAULT_CAD_LAYER
 62
     7
370
     0
100
AcDbLine
 10
579.1282887190094
 20
563.2902666747549
 30
0.0
 11
579.1282887190094
 21
563.2902666747549
 31
0.0
  0
LINE
  5
2E1
330
1F
100
AcDbEntity
  8
_DEFAULT_CAD_LAYER
 62
     7
370
     0
100
AcDbLine
 10
579.444790982072
 20
563.5331274029592
 30
0.0
 11
579.444790982072
 21
563.5331274029592
 31
0.0
  0
LINE
  5
2E2
330
1F
100
AcDbEntity
  8
_DEFAULT_CAD_LAYER
 62
     7
370
     0
100
AcDbLine
 10
579.7700310376731
 20
563.7826928751937
 30
0.0
 11
579.7700310376731
 21
563.7826928751937
 31
0.0
  0
LINE
  5
2E3
330
1F
100
AcDbEntity
  8
_DEFAULT_CAD_LAYER
 62
     7
370
     0
100
AcDbLine
 10
580.0900091678303
 20
562.520253792811
 30
0.0
 11
580.0900091678303
 21
562.520253792811
 31
0.0
  0
LINE
  5
2E4
330
1F
100
AcDbEntity
  8
_DEFAULT_CAD_LAYER
 62
     7
370
     0
100
AcDbLine
 10
580.2422042142537
 20
562.540290650793
 30
0.0
 11
580.2422042142537
 21
562.540290650793
 31
0.0
  0
LINE
  5
2E5
330
1F
100
AcDbEntity
  8
_DEFAULT_CAD_LAYER
 62
     7
370
     0
100
AcDbLine
 10
580.49599543041
 20
562.5737028982658
 30
0.0
 11
580.49599543041
 21
562.5737028982658
 31
0.0
  0
LINE
  5
2E6
330
1F
100
AcDbEntity
  8
_DEFAULT_CAD_LAYER
 62
     7
370
     0
100
AcDbLine
 10
580.8089202147811
 20
562.6149002276852
 30
0.0
 11
580.8089202147811
 21
562.6149002276852
 31
0.0
  0
LINE
  5
2E7
330
1F
100
AcDbEntity
  8
_DEFAULT_CAD_LAYER
 62
     7
370
     0
100
AcDbLine
 10
580.953366387773
 20
562.6339169271265
 30
0.0
 11
580.953366387773
 21
562.6339169271265
 31
0.0
  0
LINE
  5
2E8
330
1F
100
AcDbEntity
  8
_DEFAULT_CAD_LAYER
 62
     7
370
     0
100
AcDbLine
 10
581.1942360532073
 20
562.665628020174
 30
0.0
 11
581.1942360532073
 21
562.665628020174
 31
0.0
  0
LINE
  5
2E9
330
1F
100
AcDbEntity
  8
_DEFAULT_CAD_LAYER
 62
     7
370
     0
100
AcDbLine
 10
578.6295096826816
 20
562.7776978256647
 30
0.0
 11
578.6295096826816
 21
562.7776978256647
 31
0.0
  0
LINE
  5
2EA
330
1F
100
AcDbEntity
  8
_DEFAULT_CAD_LAYER
 62
     7
370
     0
100
AcDbLine
 10
578.8617630559105
 20
562.8082745623234
 30
0.0
 11
578.8617630559105
 21
562.8082745623234
 31
0.0
  0
LINE
  5
2EB
330
1F
100
AcDbEntity
  8
_DEFAULT_CAD_LAYER
 62
     7
370
     0
100
AcDbLine
 10
579.2490546756666
 20
562.859262471359
 30
0.0
 11
579.2490546756666
 21
562.859262471359
 31
0.0
  0
LINE
  5
2EC
330
1F
100
AcDbEntity
  8
_DEFAULT_CAD_LAYER
 62
     7
370
     0
100
AcDbLine
 10
579.5619794600377
 20
562.9004598007784
 30
0.0
 11
579.5619794600377
 21
562.9004598007784
 31
0.0
  0
LINE
  5
2ED
330
1F
100
AcDbEntity
  8
_DEFAULT_CAD_LAYER
 62
     7
370
     0
100
AcDbLine
 10
580.0353943813437
 20
562.9627860575636
 30
0.0
 11
580.0353943813437
 21
562.9627860575636
 31
0.0
  0
LINE
  5
2EE
330
1F
100
AcDbEntity
  8
_DEFAULT_CAD_LAYER
 62
     7
370
     0
100
AcDbLine
 10
580.8248323522126
 20
563.0667175381187
 30
0.0
 11
580.8248323522126
 21
563.0667175381187
 31
0.0
  0
LINE
  5
2EF
330
1F
100
AcDbEntity
  8
_DEFAULT_CAD_LAYER
 62
     7
370
     0
100
AcDbLine
 10
581.1377571365837
 20
563.1079148675382
 30
0.0
 11
581.1377571365837
 21
563.1079148675382
 31
0.0
  0
LINE
  5
2F0
330
1F
100
AcDbEntity
  8
_DEFAULT_CAD_LAYER
 62
     7
370
     0
100
AcDbLine
 10
581.1589298020893
 20
563.1107023018326
 30
0.0
 11
581.1589298020893
 21
563.1107023018326
 31
0.0
  0
LINE
  5
2F1
330
1F
100
AcDbEntity
  8
_DEFAULT_CAD_LAYER
 62
     7
370
     0
100
AcDbLine
 10
581.1942360532073
 20
563.1153504579727
 30
0.0
 11
581.1942360532073
 21
563.1153504579727
 31
0.0
  0
LINE
  5
2F2
330
1F
100
AcDbEntity
  8
_DEFAULT_CAD_LAYER
 62
     7
370
     0
100
AcDbLine
 10
578.6295096826816
 20
563.2274202634634
 30
0.0
 11
578.6295096826816
 21
563.2274202634634
 31
0.0
  0
LINE
  5
2F3
330
1F
100
AcDbEntity
  8
_DEFAULT_CAD_LAYER
 62
     7
370
     0
100
AcDbLine
 10
578.985036563397
 20
563.274226265269
 30
0.0
 11
578.985036563397
 21
563.274226265269
 31
0.0
  0
LINE
  5
2F4
330
1F
100
AcDbEntity
  8
_DEFAULT_CAD_LAYER
 62
     7
370
     0
100
AcDbLine
 10
579.5778915974694
 20
563.3522771112118
 30
0.0
 11
579.5778915974694
 21
563.3522771112118
 31
0.0
  0
LINE
  5
2F5
330
1F
100
AcDbEntity
  8
_DEFAULT_CAD_LAYER
 62
     7
370
     0
100
AcDbLine
 10
579.8908163818405
 20
563.3934744406313
 30
0.0
 11
579.8908163818405
 21
563.3934744406313
 31
0.0
  0
LINE
  5
2F6
330
1F
100
AcDbEntity
  8
_DEFAULT_CAD_LAYER
 62
     7
370
     0
100
AcDbLine
 10
580.3642313031465
 20
563.4558006974164
 30
0.0
 11
580.3642313031465
 21
563.4558006974164
 31
0.0
  0
LINE
  5
2F7
330
1F
100
AcDbEntity
  8
_DEFAULT_CAD_LAYER
 62
     7
370
     0
100
AcDbLine
 10
581.1536692740153
 20
563.5597321779717
 30
0.0
 11
581.1536692740153
 21
563.5597321779717
 31
0.0
  0
LINE
  5
2F8
330
1F
100
AcDbEntity
  8
_DEFAULT_CAD_LAYER
 62
     7
370
     0
100
AcDbLine
 10
580.6280934935934
 20
563.9402612516063
 30
0.0
 11
580.6280934935934
 21
563.9402612516063
 31
0.0
  0
LINE
  5
2F9
330
1F
100
AcDbEntity
  8
_DEFAULT_CAD_LAYER
 62
     7
370
     0
100
AcDbLine
 10
580.8403275051464
 20
563.9682023893002
 30
0.0
 11
580.8403275051464
 21
563.9682023893002
 31
0.0
  0
LINE
  5
2FA
330
1F
100
AcDbEntity
  8
_DEFAULT_CAD_LAYER
 62
     7
370
     0
100
AcDbLine
 10
581.1942360532073
 20
564.0147953335701
 30
0.0
 11
581.1942360532073
 21
564.0147953335701
 31
0.0
  0
LINE
  5
2FB
330
1F
100
AcDbEntity
  8
_DEFAULT_CAD_LAYER
 62
     7
370
     0
100
AcDbLine
 10
578.6295096826816
 20
562.7411460716288
 30
0.0
 11
578.6295096826816
 21
562.7411460716288
 31
0.0
  0
LINE
  5
2FC
330
1F
100
AcDbEntity
  8
_DEFAULT_CAD_LAYER
 62
     7
370
     0
100
AcDbLine
 10
578.6332145166843
 20
562.7387858320644
 30
0.0
 11
578.6332145166843
 21
562.7387858320644
 31
0.0
  0
LINE
  5
2FD
330
1F
100
AcDbEntity
  8
_DEFAULT_CAD_LAYER
 62
     7
370
     0
100
AcDbLine
 10
578.6447735987731
 20
562.7314218846235
 30
0.0
 11
578.6447735987731
 21
562.7314218846235
 31
0.0
  0
LINE
  5
2FE
330
1F
100
AcDbEntity
  8
_DEFAULT_CAD_LAYER
 62
     7
370
     0
100
AcDbLine
 10
579.4283553243662
 20
562.6291346789645
 30
0.0
 11
579.4283553243662
 21
562.6291346789645
 31
0.0
  0
LINE
  5
2FF
330
1F
100
AcDbEntity
  8
_DEFAULT_CAD_LAYER
 62
     7
370
     0
100
AcDbLine
 10
579.4698380322834
 20
562.6027072794127
 30
0.0
 11
579.4698380322834
 21
562.6027072794127
 31
0.0
  0
LINE
  5
300
330
1F
100
AcDbEntity
  8
_DEFAULT_CAD_LAYER
 62
     7
370
     0
100
AcDbLine
 10
579.5992640809851
 20
562.520253792811
 30
0.0
 11
579.5992640809851
 21
562.520253792811
 31
0.0
  0
LINE
  5
301
330
1F
100
AcDbEntity
  8
_DEFAULT_CAD_LAYER
 62
     7
370
     0
100
AcDbLine
 10
579.1207993669391
 20
563.2219788416041
 30
0.0
 11
579.1207993669391
 21
563.2219788416041
 31
0.0
  0
LINE
  5
302
330
1F
100
AcDbEntity
  8
_DEFAULT_CAD_LAYER
 62
     7
370
     0
100
AcDbLine
 10
579.3843591937556
 20
563.0540727139958
 30
0.0
 11
579.3843591937556
 21
563.0540727139958
 31
0.0
  0
LINE
  5
303
330
1F
100
AcDbEntity
  8
_DEFAULT_CAD_LAYER
 62
     7
370
     0
100
AcDbLine
 10
580.2066658534231
 20
562.5302055958576
 30
0.0
 11
580.2066658534231
 21
562.5302055958576
 31
0.0
  0
LINE
  5
304
330
1F
100
AcDbEntity
  8
_DEFAULT_CAD_LAYER
 62
     7
370
     0
100
AcDbLine
 10
579.0664746955746
 20
563.6534968827872
 30
0.0
 11
579.0664746955746
 21
563.6534968827872
 31
0.0
  0
LINE
  5
305
330
1F
100
AcDbEntity
  8
_DEFAULT_CAD_LAYER
 62
     7
370
     0
100
AcDbLine
 10
579.268570618007
 20
563.524747580775
 30
0.0
 11
579.268570618007
 21
563.524747580775
 31
0.0
  0
LINE
  5
306
330
1F
100
AcDbEntity
  8
_DEFAULT_CAD_LAYER
 62
     7
370
     0
100
AcDbLine
 10
579.899109895996
 20
563.1230497584972
 30
0.0
 11
579.899109895996
 21
563.1230497584972
 31
0.0
  0
LINE
  5
307
330
1F
100
AcDbEntity
  8
_DEFAULT_CAD_LAYER
 62
     7
370
     0
100
AcDbLine
 10
580.6826916215889
 20
563.0207625528383
 30
0.0
 11
580.6826916215889
 21
563.0207625528383
 31
0.0
  0
LINE
  5
308
330
1F
100
AcDbEntity
  8
_DEFAULT_CAD_LAYER
 62
     7
370
     0
100
AcDbLine
 10
580.8068528913992
 20
562.941663100298
 30
0.0
 11
580.8068528913992
 21
562.941663100298
 31
0.0
  0
LINE
  5
309
330
1F
100
AcDbEntity
  8
_DEFAULT_CAD_LAYER
 62
     7
370
     0
100
AcDbLine
 10
581.1942360532073
 20
562.6948728083726
 30
0.0
 11
581.1942360532073
 21
562.6948728083726
 31
0.0
  0
LINE
  5
30A
330
1F
100
AcDbEntity
  8
_DEFAULT_CAD_LAYER
 62
     7
370
     0
100
AcDbLine
 10
579.550095931168
 20
563.7423055847242
 30
0.0
 11
579.550095931168
 21
563.7423055847242
 31
0.0
  0
LINE
  5
30B
330
1F
100
AcDbEntity
  8
_DEFAULT_CAD_LAYER
 62
     7
370
     0
100
AcDbLine
 10
579.5601585543235
 20
563.7358949867662
 30
0.0
 11
579.5601585543235
 21
563.7358949867662
 31
0.0
  0
LINE
  5
30C
330
1F
100
AcDbEntity
  8
_DEFAULT_CAD_LAYER
 62
     7
370
     0
100
AcDbLine
 10
579.5915539385685
 20
563.7158939211371
 30
0.0
 11
579.5915539385685
 21
563.7158939211371
 31
0.0
  0
LINE
  5
30D
330
1F
100
AcDbEntity
  8
_DEFAULT_CAD_LAYER
 62
     7
370
     0
100
AcDbLine
 10
580.3751356641616
 20
563.613606715478
 30
0.0
 11
580.3751356641616
 21
563.613606715478
 31
0.0
  0
LINE
  5
30E
330
1F
100
AcDbEntity
  8
_DEFAULT_CAD_LAYER
 62
     7
370
     0
100
AcDbLine
 10
580.5739464382018
 20
563.4869502838088
 30
0.0
 11
580.5739464382018
 21
563.4869502838088
 31
0.0
  0
LINE
  5
30F
330
1F
100
AcDbEntity
  8
_DEFAULT_CAD_LAYER
 62
     7
370
     0
100
AcDbLine
 10
581.1942360532073
 20
563.0917822170011
 30
0.0
 11
581.1942360532073
 21
563.0917822170011
 31
0.0
  0
LINE
  5
310
330
1F
100
AcDbEntity
  8
_DEFAULT_CAD_LAYER
 62
     7
370
     0
100
AcDbLine
 10
580.5173384023549
 20
563.9199229885983
 30
0.0
 11
580.5173384023549
 21
563.9199229885983
 31
0.0
  0
LINE
  5
311
330
1F
100
AcDbEntity
  8
_DEFAULT_CAD_LAYER
 62
     7
370
     0
100
AcDbLine
 10
580.6717334972246
 20
563.8215624652422
 30
0.0
 11
580.6717334972246
 21
563.8215624652422
 31
0.0
  0
LINE
  5
312
330
1F
100
AcDbEntity
  8
_DEFAULT_CAD_LAYER
 62
     7
370
     0
100
AcDbLine
 10
581.1534461932184
 20
563.5146776323712
 30
0.0
 11
581.1534461932184
 21
563.5146776323712
 31
0.0
  0
LINE
  5
313
330
1F
100
AcDbEntity
  8
_DEFAULT_CAD_LAYER
 62
     7
370
     0
100
AcDbLine
 10
578.6295096826816
 20
563.1273730329357
 30
0.0
 11
578.6295096826816
 21
563.1273730329357
 31
0.0
  0
LINE
  5
314
330
1F
100
AcDbEntity
  8
_DEFAULT_CAD_LAYER
 62
     7
370
     0
100
AcDbLine
 10
578.8158052589325
 20
562.9566645888355
 30
0.0
 11
578.8158052589325
 21
562.9566645888355
 31
0.0
  0
LINE
  5
315
330
1F
100
AcDbEntity
  8
_DEFAULT_CAD_LAYER
 62
     7
370
     0
100
AcDbLine
 10
579.1127317466186
 20
562.6845815917773
 30
0.0
 11
579.1127317466186
 21
562.6845815917773
 31
0.0
  0
LINE
  5
316
330
1F
100
AcDbEntity
  8
_DEFAULT_CAD_LAYER
 62
     7
370
     0
100
AcDbLine
 10
579.8512253359414
 20
562.8009977060144
 30
0.0
 11
579.8512253359414
 21
562.8009977060144
 31
0.0
  0
LINE
  5
317
330
1F
100
AcDbEntity
  8
_DEFAULT_CAD_LAYER
 62
     7
370
     0
100
AcDbLine
 10
579.969342680198
 20
562.69276310128
 30
0.0
 11
579.969342680198
 21
562.69276310128
 31
0.0
  0
LINE
  5
318
330
1F
100
AcDbEntity
  8
_DEFAULT_CAD_LAYER
 62
     7
370
     0
100
AcDbLine
 10
580.1576035550438
 20
562.520253792811
 30
0.0
 11
580.1576035550438
 21
562.520253792811
 31
0.0
  0
LINE
  5
319
330
1F
100
AcDbEntity
  8
_DEFAULT_CAD_LAYER
 62
     7
370
     0
100
AcDbLine
 10
578.9451909905945
 20
563.6312252213863
 30
0.0
 11
578.9451909905945
 21
563.6312252213863
 31
0.0
  0
LINE
  5
31A
330
1F
100
AcDbEntity
  8
_DEFAULT_CAD_LAYER
 62
     7
370
     0
100
AcDbLine
 10
579.033346100262
 20
563.5504459462492
 30
0.0
 11
579.033346100262
 21
563.5504459462492
 31
0.0
  0
LINE
  5
31B
330
1F
100
AcDbEntity
  8
_DEFAULT_CAD_LAYER
 62
     7
370
     0
100
AcDbLine
 10
579.1738517827472
 20
563.4216962092613
 30
0.0
 11
579.1738517827472
 21
563.4216962092613
 31
0.0
  0
LINE
  5
31C
330
1F
100
AcDbEntity
  8
_DEFAULT_CAD_LAYER
 62
     7
370
     0
100
AcDbLine
 10
579.9123453720699
 20
563.5381123234985
 30
0.0
 11
579.9123453720699
 21
563.5381123234985
 31
0.0
  0
LINE
  5
31D
330
1F
100
AcDbEntity
  8
_DEFAULT_CAD_LAYER
 62
     7
370
     0
100
AcDbLine
 10
580.211864290149
 20
563.2636538016546
 30
0.0
 11
580.211864290149
 21
563.2636538016546
 31
0.0
  0
LINE
  5
31E
330
1F
100
AcDbEntity
  8
_DEFAULT_CAD_LAYER
 62
     7
370
     0
100
AcDbLine
 10
580.6892513657335
 20
562.8262091422234
 30
0.0
 11
580.6892513657335
 21
562.8262091422234
 31
0.0
  0
LINE
  5
31F
330
1F
100
AcDbEntity
  8
_DEFAULT_CAD_LAYER
 62
     7
370
     0
100
AcDbLine
 10
580.3872761134588
 20
563.8960392916104
 30
0.0
 11
580.3872761134588
 21
563.8960392916104
 31
0.0
  0
LINE
  5
320
330
1F
100
AcDbEntity
  8
_DEFAULT_CAD_LAYER
 62
     7
370
     0
100
AcDbLine
 10
580.5272594690117
 20
563.7677681790736
 30
0.0
 11
580.5272594690117
 21
563.7677681790736
 31
0.0
  0
LINE
  5
321
330
1F
100
AcDbEntity
  8
_DEFAULT_CAD_LAYER
 62
     7
370
     0
100
AcDbLine
 10
580.7503714018621
 20
563.5633237597075
 30
0.0
 11
580.7503714018621
 21
563.5633237597075
 31
0.0
  0
LWPOLYLINE
  5
322
330
1F
100
AcDbEntity
  8
_DEFAULT_CAD_LAYER
 62
     7
370
    18
100
AcDbPolyline
 90
        4
 70
     1
 43
0.0
 10
581.1942360532073
 20
562.520253792811
 10
578.6295096826816
 20
562.520253792811
 10
578.6295096826816
 20
563.5732557917621
 10
581.1942360532073
 20
564.0442235719725
  0
INSERT
  5
323
330
1F
100
AcDbEntity
  8
_DEFAULT_CAD_LAYER
100
AcDbBlockReference
  2
5__Bevel
 10
576.1734147653756
 20
548.2755479323089
 30
0.0
  0
SOLID
  5
324
330
1F
100
AcDbEntity
  8
_DEFAULT_CAD_LAYER
 62
     7
100
AcDbTrace
 10
575.9115440760077
 20
563.2729311514042
 30
0.0
 11
581.3106248128339
 21
564.1026365699308
 31
0.0
 12
575.9115440760077
 22
563.2729311514042
 32
0.0
 13
576.0528264679979
 23
563.1493090584127
 33
0.0
  0
SOLID
  5
325
330
1F
100
AcDbEntity
  8
_DEFAULT_CAD_LAYER
 62
     7
100
AcDbTrace
 10
581.3106248128339
 20
564.1026365699308
 30
0.0
 11
575.9115440760077
 21
563.2729311514042
 31
0.0
 12
581.3106248128339
 22
564.9120781503709
 32
0.0
 13
575.2404527140533
 23
563.6967783273753
 33
0.0
  0
SOLID
  5
326
330
1F
100
AcDbEntity
  8
_DEFAULT_CAD_LAYER
 62
     7
100
AcDbTrace
 10
575.2404527140533
 20
563.6967783273753
 30
0.0
 11
575.9115440760077
 21
563.2729311514042
 31
0.0
 12
575.2404527140533
 22
562.9727060684247
 32
0.0
 13
575.7529139566819
 23
563.0916395864608
 33
0.0
  0
LWPOLYLINE
  5
327
330
1F
100
AcDbEntity
  8
_DEFAULT_CAD_LAYER
 62
     7
100
AcDbPolyline
 90
        7
 70
     1
 43
0.0
 10
576.0528264679979
 20
563.1493090584127
 10
575.9115440760077
 20
563.2729311514042
 10
575.7529139566819
 20
563.0916395864607
 10
575.2404527140533
 20
562.9727060684247
 10
575.2404527140533
 20
563.6967783273753
 10
581.3106248128339
 20
564.912078150371
 10
581.3106248128339
 20
564.1026365699308
  0
INSERT
  5
352
330
1F
100
AcDbEntity
  8
_DEFAULT_CAD_LAYER
  6
Continuous
370
     0
100
AcDbBlockReference
  2
block63_1
 10
577.5644307700538
 20
544.6683760441548
 30
0.0
 41
-1.0
1001
CHIEFARC-LNWT
1070
     0
  0
INSERT
  5
353
330
1F
100
AcDbEntity
  8
_DEFAULT_CAD_LAYER
100
AcDbBlockReference
  2
block63_1
 10
591.1685011691396
 20
544.7755687850382
 30
0.0
  0
LINE
  5
357
330
1F
100
AcDbEntity
  8
Text
100
AcDbLine
 10
592.8493322306831
 20
581.6787388859224
 30
0.0
 11
593.5241691016805
 21
582.4579020251574
 31
0.0
  0
LINE
  5
358
330
1F
100
AcDbEntity
  8
Text
100
AcDbLine
 10
592.8493322306831
 20
581.6787388859224
 30
0.0
 11
593.8114415353208
 21
582.0486654812485
 31
0.0
  0
LWPOLYLINE
  5
359
330
1F
100
AcDbEntity
  8
Text
100
AcDbPolyline
 90
        3
 70
     0
 43
0.0
 10
601.5938655487932
 20
585.5581091719889
 10
598.3757242631326
 20
585.5581091719889
 10
592.8493322306831
 20
581.6787388859224
  0
LINE
  5
35A
330
1F
100
AcDbEntity
  8
Text
100
AcDbLine
 10
586.6815405749745
 20
565.0358263772566
 30
0.0
 11
587.2118706608644
 21
565.9197098537398
 31
0.0
  0
LINE
  5
35B
330
1F
100
AcDbEntity
  8
Text
100
AcDbLine
 10
586.6815405749745
 20
565.0358263772566
 30
0.0
 11
587.5654240514577
 21
565.5661564631465
 31
0.0
  0
LWPOLYLINE
  5
35C
330
1F
100
AcDbEntity
  8
Text
100
AcDbPolyline
 90
        3
 70
     0
 43
0.0
 10
601.5938655487932
 20
570.5722179738934
 10
592.2179321716113
 20
570.5722179738934
 10
586.6815405749745
 20
565.0358263772566
  0
LINE
  5
35D
330
1F
100
AcDbEntity
  8
Text
100
AcDbLine
 10
592.4940746001494
 20
562.114987696096
 30
0.0
 11
593.0244046860392
 21
562.9988711725792
 31
0.0
  0
LINE
  5
35E
330
1F
100
AcDbEntity
  8
Text
100
AcDbLine
 10
592.4940746001494
 20
562.114987696096
 30
0.0
 11
593.3779580766326
 21
562.6453177819859
 31
0.0
  0
LWPOLYLINE
  5
35F
330
1F
100
AcDbEntity
  8
Text
100
AcDbPolyline
 90
        3
 70
     0
 43
0.0
 10
601.5938655487932
 20
567.1222179738936
 10
597.501304877947
 20
567.1222179738937
 10
592.4940746001494
 20
562.114987696096
  0
LINE
  5
360
330
1F
100
AcDbEntity
  8
Text
100
AcDbLine
 10
591.7104439716816
 20
557.3313570676282
 30
0.0
 11
592.2407740575715
 21
558.2152405441115
 31
0.0
  0
LINE
  5
361
330
1F
100
AcDbEntity
  8
Text
100
AcDbLine
 10
591.7104439716816
 20
557.3313570676282
 30
0.0
 11
592.5943274481648
 21
557.8616871535181
 31
0.0
  0
LWPOLYLINE
  5
362
330
1F
100
AcDbEntity
  8
Text
100
AcDbPolyline
 90
        3
 70
     0
 43
0.0
 10
601.5938655487932
 20
563.1222179738936
 10
597.501304877947
 20
563.1222179738937
 10
591.7104439716816
 20
557.3313570676282
  0
LINE
  5
363
330
1F
100
AcDbEntity
  8
Text
100
AcDbLine
 10
590.4017243062661
 20
552.0226374022128
 30
0.0
 11
590.932054392156
 21
552.906520878696
 31
0.0
  0
LINE
  5
364
330
1F
100
AcDbEntity
  8
Text
100
AcDbLine
 10
590.4017243062661
 20
552.0226374022128
 30
0.0
 11
591.2856077827494
 21
552.5529674881027
 31
0.0
  0
LWPOLYLINE
  5
365
330
1F
100
AcDbEntity
  8
Text
100
AcDbPolyline
 90
        3
 70
     0
 43
0.0
 10
601.5938655487932
 20
559.1222179738936
 10
597.501304877947
 20
559.1222179738937
 10
590.4017243062661
 20
552.0226374022128
  0
LINE
  5
366
330
1F
100
AcDbEntity
  8
Text
100
AcDbLine
 10
576.2336974968357
 20
583.6702424386142
 30
0.0
 11
575.2278861557731
 21
583.8957275738006
 31
0.0
  0
LINE
  5
367
330
1F
100
AcDbEntity
  8
Text
100
AcDbLine
 10
576.2336974968357
 20
583.6702424386142
 30
0.0
 11
575.452327553633
 21
584.3425228948669
 31
0.0
  0
LWPOLYLINE
  5
368
330
1F
100
AcDbEntity
  8
Text
100
AcDbPolyline
 90
        3
 70
     0
 43
0.0
 10
564.4909317759996
 20
586.3659928269276
 10
570.8672692365118
 20
586.3659928269276
 10
576.2336974968357
 20
583.6702424386142
  0
LINE
  5
369
330
1F
100
AcDbEntity
  8
Text
100
AcDbLine
 10
580.801939416454
 20
564.6131496000609
 30
0.0
 11
579.9180559399708
 21
565.1434796859508
 31
0.0
  0
LINE
  5
36A
330
1F
100
AcDbEntity
  8
Text
100
AcDbLine
 10
580.801939416454
 20
564.6131496000609
 30
0.0
 11
580.2716093305642
 21
565.4970330765441
 31
0.0
  0
LWPOLYLINE
  5
36B
330
1F
100
AcDbEntity
  8
Text
100
AcDbPolyline
 90
        3
 70
     0
 43
0.0
 10
571.2009317759996
 20
571.5582800112447
 10
573.8568090052703
 20
571.5582800112447
 10
580.801939416454
 20
564.6131496000609
  0
LINE
  5
36C
330
1F
100
AcDbEntity
  8
Text
100
AcDbLine
 10
579.0400606601477
 20
562.9784072869286
 30
0.0
 11
578.0490352563633
 21
563.2619009359825
 31
0.0
  0
LINE
  5
36D
330
1F
100
AcDbEntity
  8
Text
100
AcDbLine
 10
579.0400606601477
 20
562.9784072869286
 30
0.0
 11
578.2990352563633
 21
563.6949136378747
 31
0.0
  0
LWPOLYLINE
  5
36E
330
1F
100
AcDbEntity
  8
Text
100
AcDbPolyline
 90
        3
 70
     0
 43
0.0
 10
570.7014718510213
 20
566.2593223472852
 10
573.357349080292
 20
566.2593223472852
 10
579.0400606601477
 20
562.9784072869286
  0
LINE
  5
36F
330
1F
100
AcDbEntity
  8
Text
100
AcDbLine
 10
581.8553180167143
 20
558.982298433466
 30
0.0
 11
580.8246874291495
 21
558.9996360219963
 31
0.0
  0
LINE
  5
370
330
1F
100
AcDbEntity
  8
Text
100
AcDbLine
 10
581.8553180167143
 20
558.982298433466
 30
0.0
 11
580.9540969517008
 21
559.4825989351408
 31
0.0
  0
LWPOLYLINE
  5
371
330
1F
100
AcDbEntity
  8
Text
100
AcDbPolyline
 90
        3
 70
     0
 43
0.0
 10
566.6190958151876
 20
561.2593223472852
 10
573.3573490802921
 20
561.2593223472852
 10
581.8553180167143
 20
558.982298433466
  0
LINE
  5
372
330
1F
100
AcDbEntity
  8
Text
100
AcDbLine
 10
577.0295219979481
 20
553.6580371051799
 30
0.0
 11
576.0021248913188
 21
553.7414348586832
 31
0.0
  0
LINE
  5
373
330
1F
100
AcDbEntity
  8
Text
100
AcDbLine
 10
577.0295219979481
 20
553.6580371051799
 30
0.0
 11
576.1622411408059
 21
554.2151043496259
 31
0.0
  0
LWPOLYLINE
  5
374
330
1F
100
AcDbEntity
  8
Text
100
AcDbPolyline
 90
        3
 70
     0
 43
0.0
 10
564.9176123176475
 20
556.2593223472852
 10
569.3341790182676
 20
556.2593223472851
 10
577.0295219979481
 20
553.6580371051799
  0
LINE
  5
375
330
1F
100
AcDbEntity
  8
Text
100
AcDbLine
 10
578.2952982952506
 20
549.9362028428712
 30
0.0
 11
577.2646677076859
 21
549.9535404314015
 31
0.0
  0
LINE
  5
376
330
1F
100
AcDbEntity
  8
Text
100
AcDbLine
 10
578.2952982952506
 20
549.9362028428712
 30
0.0
 11
577.3940772302371
 21
550.436503344546
 31
0.0
  0
LWPOLYLINE
  5
377
330
1F
100
AcDbEntity
  8
Text
100
AcDbPolyline
 90
        3
 70
     0
 43
0.0
 10
569.7930430910594
 20
551.2593223472852
 10
573.3573490802921
 20
551.2593223472852
 10
578.2952982952506
 20
549.9362028428712
  0
MTEXT
  5
378
330
1F
100
AcDbEntity
  8
Text
 62
   156
370
     9
100
AcDbMText
 10
602.0938655487932
 20
586.9943360008235
 30
0.0
 40
1.0
 41
16.26
 46
0.0
 71
     7
 72
     1
  1
\fArial|b0|i0|c0|p0;DRYWALL RETURN OR
 73
     1
 44
1.0
1001
CHIEFARC-LNWT
1070
    10
1001
CHIEFARC_RTFBINARY
1000

1001
CHIEFARC_SIMPLE_TEXT_BINARY
1000

1001
CHIEFARC-WIDTHEXPANDED
1070
     1
1001
CHIEFARC_AUTOHEIGHT
1070
     1
1001
CHIEFARC_AUTOWIDTH
1070
     1
  0
MTEXT
  5
37E
330
1F
100
AcDbEntity
  8
Text
 62
   156
370
     9
100
AcDbMText
 10
602.0938655487932
 20
585.4443360008236
 30
0.0
 40
1.0
 41
15.82
 46
0.0
 71
     7
 72
     1
  1
\fArial|b0|i0|c0|p0;ALT EXTENSION JAMB
 73
     1
 44
1.0
1001
CHIEFARC-LNWT
1070
    10
1001
CHIEFARC_RTFBINARY
1000

1001
CHIEFARC_SIMPLE_TEXT_BINARY
1000

1001
CHIEFARC-WIDTHEXPANDED
1070
     1
1001
CHIEFARC_AUTOHEIGHT
1070
     1
1001
CHIEFARC_AUTOWIDTH
1070
     1
  0
MTEXT
  5
37F
330
1F
100
AcDbEntity
  8
Text
 62
   156
370
     9
100
AcDbMText
 10
602.0938655487934
 20
571.9943360008235
 30
0.0
 40
1.0
 41
14.37
 46
0.0
 71
     7
 72
     1
  1
\fArial|b0|i0|c0|p0;EXISTING WINDOW
 73
     1
 44
1.0
1001
CHIEFARC-LNWT
1070
    10
1001
CHIEFARC_RTFBINARY
1000

1001
CHIEFARC_SIMPLE_TEXT_BINARY
1000

1001
CHIEFARC-WIDTHEXPANDED
1070
     1
1001
CHIEFARC_AUTOHEIGHT
1070
     1
1001
CHIEFARC_AUTOWIDTH
1070
     1
  0
MTEXT
  5
380
330
1F
100
AcDbEntity
  8
Text
 62
   156
370
     9
100
AcDbMText
 10
602.0938655487934
 20
570.4443360008236
 30
0.0
 40
1.0
 41
12.95000000000005
 46
0.0
 71
     7
 72
     1
  1
\fArial|b0|i0|c0|p0;SET IN CMU WALL
 73
     1
 44
1.0
1001
CHIEFARC-LNWT
1070
    10
1001
CHIEFARC_RTFBINARY
1000

1001
CHIEFARC_SIMPLE_TEXT_BINARY
1000

1001
CHIEFARC_AUTOHEIGHT
1070
     1
1001
CHIEFARC_AUTOWIDTH
1070
     1
  0
MTEXT
  5
381
330
1F
100
AcDbEntity
  8
Text
 62
   156
370
     9
100
AcDbMText
 10
602.0938655487934
 20
566.9943360008234
 30
0.0
 40
1.0
 41
10.17
 46
0.0
 71
     7
 72
     1
  1
\fArial|b0|i0|c0|p0;1/2" DRYWALL
 73
     1
 44
1.0
1001
CHIEFARC-LNWT
1070
    10
1001
CHIEFARC_RTFBINARY
1000

1001
CHIEFARC_SIMPLE_TEXT_BINARY
1000

1001
CHIEFARC-WIDTHEXPANDED
1070
     1
1001
CHIEFARC_AUTOHEIGHT
1070
     1
1001
CHIEFARC_AUTOWIDTH
1070
     1
  0
MTEXT
  5
382
330
1F
100
AcDbEntity
  8
Text
 62
   156
370
     9
100
AcDbMText
 10
602.0938655487932
 20
562.9943360008234
 30
0.0
 40
1.0
 41
12.55
 46
0.0
 71
     7
 72
     1
  1
\fArial|b0|i0|c0|p0;INSOFAST PANEL
 73
     1
 44
1.0
1001
CHIEFARC-LNWT
1070
    10
1001
CHIEFARC_RTFBINARY
1000

1001
CHIEFARC_SIMPLE_TEXT_BINARY
1000

1001
CHIEFARC-WIDTHEXPANDED
1070
     1
1001
CHIEFARC_AUTOHEIGHT
1070
     1
1001
CHIEFARC_AUTOWIDTH
1070
     1
  0
MTEXT
  5
383
330
1F
100
AcDbEntity
  8
Text
 62
   156
370
     9
100
AcDbMText
 10
602.0938655487932
 20
558.9943360008234
 30
0.0
 40
1.0
 41
17.7
 46
0.0
 71
     7
 72
     1
  1
\fArial|b0|i0|c0|p0;DRAIN & DRY CHANNELS
 73
     1
 44
1.0
1001
CHIEFARC-LNWT
1070
    10
1001
CHIEFARC_RTFBINARY
1000

1001
CHIEFARC_SIMPLE_TEXT_BINARY
1000

1001
CHIEFARC-WIDTHEXPANDED
1070
     1
1001
CHIEFARC_AUTOHEIGHT
1070
     1
1001
CHIEFARC_AUTOWIDTH
1070
     1
  0
MTEXT
  5
384
330
1F
100
AcDbEntity
  8
Text
 62
   156
370
     9
100
AcDbMText
 10
552.5053979151414
 20
586.2973822025925
 30
0.0
 40
1.0
 41
12.8
 46
0.0
 71
     7
 72
     1
  1
\fArial|b0|i0|c0|p0;EXTERIOR FINISH
 73
     1
 44
1.0
1001
CHIEFARC-LNWT
1070
    10
1001
CHIEFARC_RTFBINARY
1000

1001
CHIEFARC_SIMPLE_TEXT_BINARY
1000

1001
CHIEFARC-WIDTHEXPANDED
1070
     1
1001
CHIEFARC_AUTOHEIGHT
1070
     1
1001
CHIEFARC_AUTOWIDTH
1070
     1
  0
MTEXT
  5
385
330
1F
100
AcDbEntity
  8
Text
 62
   156
370
     9
100
AcDbMText
 10
552.5053979151413
 20
576.1396693869095
 30
0.0
 40
1.0
 41
18.61000000000013
 46
0.0
 71
     7
 72
     1
  1
\fArial|b0|i0|c0|p0;EXTENSION SILL NOSING
 73
     1
 44
1.0
1001
CHIEFARC-LNWT
1070
    10
1001
CHIEFARC_RTFBINARY
1000

1001
CHIEFARC_SIMPLE_TEXT_BINARY
1000

1001
CHIEFARC_AUTOHEIGHT
1070
     1
1001
CHIEFARC_AUTOWIDTH
1070
     1
  0
MTEXT
  5
386
330
1F
100
AcDbEntity
  8
Text
 62
   156
370
     9
100
AcDbMText
 10
552.5053979151413
 20
574.5896693869096
 30
0.0
 40
1.0
 41
19.46
 46
0.0
 71
     7
 72
     1
  1
\fArial|b0|i0|c0|p0;SET IN ADHESIVE SEALANT
 73
     1
 44
1.0
1001
CHIEFARC-LNWT
1070
    10
1001
CHIEFARC_RTFBINARY
1000

1001
CHIEFARC_SIMPLE_TEXT_BINARY
1000

1001
CHIEFARC-WIDTHEXPANDED
1070
     1
1001
CHIEFARC_AUTOHEIGHT
1070
     1
1001
CHIEFARC_AUTOWIDTH
1070
     1
  0
MTEXT
  5
387
330
1F
100
AcDbEntity
  8
Text
 62
   156
370
     9
100
AcDbMText
 10
552.5053979151413
 20
573.0396693869096
 30
0.0
 40
1.0
 41
18.94
 46
0.0
 71
     7
 72
     1
  1
\fArial|b0|i0|c0|p0;AND SEALED TO EXISTING
 73
     1
 44
1.0
1001
CHIEFARC-LNWT
1070
    10
1001
CHIEFARC_RTFBINARY
1000

1001
CHIEFARC_SIMPLE_TEXT_BINARY
1000

1001
CHIEFARC-WIDTHEXPANDED
1070
     1
1001
CHIEFARC_AUTOHEIGHT
1070
     1
1001
CHIEFARC_AUTOWIDTH
1070
     1
  0
MTEXT
  5
388
330
1F
100
AcDbEntity
  8
Text
 62
   156
370
     9
100
AcDbMText
 10
552.5053979151413
 20
571.4896693869097
 30
0.0
 40
1.0
 41
18.61000000000013
 46
0.0
 71
     7
 72
     1
  1
\fArial|b0|i0|c0|p0;WINDOW
 73
     1
 44
1.0
1001
CHIEFARC-LNWT
1070
    10
1001
CHIEFARC_RTFBINARY
1000

1001
CHIEFARC_SIMPLE_TEXT_BINARY
1000

1001
CHIEFARC_AUTOHEIGHT
1070
     1
1001
CHIEFARC_AUTOWIDTH
1070
     1
  0
MTEXT
  5
389
330
1F
100
AcDbEntity
  8
Text
 62
   156
370
     9
100
AcDbMText
 10
552.5053979151413
 20
566.2973822025925
 30
0.0
 40
1.0
 41
18.61
 46
0.0
 71
     7
 72
     1
  1
\fArial|b0|i0|c0|p0;EXISTING CONCRETE SILL
 73
     1
 44
1.0
1001
CHIEFARC-LNWT
1070
    10
1001
CHIEFARC_RTFBINARY
1000

1001
CHIEFARC_SIMPLE_TEXT_BINARY
1000

1001
CHIEFARC-WIDTHEXPANDED
1070
     1
1001
CHIEFARC_AUTOHEIGHT
1070
     1
1001
CHIEFARC_AUTOWIDTH
1070
     1
  0
MTEXT
  5
38A
330
1F
100
AcDbEntity
  8
Text
 62
   156
370
     9
100
AcDbMText
 10
552.5053979151413
 20
561.2973822025925
 30
0.0
 40
1.0
 41
14.17
 46
0.0
 71
     7
 72
     1
  1
\fArial|b0|i0|c0|p0;CMU WALL TYPICAL
 73
     1
 44
1.0
1001
CHIEFARC-LNWT
1070
    10
1001
CHIEFARC_RTFBINARY
1000

1001
CHIEFARC_SIMPLE_TEXT_BINARY
1000

1001
CHIEFARC-WIDTHEXPANDED
1070
     1
1001
CHIEFARC_AUTOHEIGHT
1070
     1
1001
CHIEFARC_AUTOWIDTH
1070
     1
  0
MTEXT
  5
38B
330
1F
100
AcDbEntity
  8
Text
 62
   156
370
     9
100
AcDbMText
 10
552.5053979151412
 20
556.2973822025925
 30
0.0
 40
1.0
 41
12.55
 46
0.0
 71
     7
 72
     1
  1
\fArial|b0|i0|c0|p0;INSOFAST PANEL
 73
     1
 44
1.0
1001
CHIEFARC-LNWT
1070
    10
1001
CHIEFARC_RTFBINARY
1000

1001
CHIEFARC_SIMPLE_TEXT_BINARY
1000

1001
CHIEFARC-WIDTHEXPANDED
1070
     1
1001
CHIEFARC_AUTOHEIGHT
1070
     1
1001
CHIEFARC_AUTOWIDTH
1070
     1
  0
MTEXT
  5
38C
330
1F
100
AcDbEntity
  8
Text
 62
   156
370
     9
100
AcDbMText
 10
552.5053979151412
 20
551.2973822025925
 30
0.0
 40
1.0
 41
17.7
 46
0.0
 71
     7
 72
     1
  1
\fArial|b0|i0|c0|p0;DRAIN & DRY CHANNELS
 73
     1
 44
1.0
1001
CHIEFARC-LNWT
1070
    10
1001
CHIEFARC_RTFBINARY
1000

1001
CHIEFARC_SIMPLE_TEXT_BINARY
1000

1001
CHIEFARC-WIDTHEXPANDED
1070
     1
1001
CHIEFARC_AUTOHEIGHT
1070
     1
1001
CHIEFARC_AUTOWIDTH
1070
     1
  0
MTEXT
  5
38D
330
1F
100
AcDbEntity
  8
Text
 62
   156
370
     9
100
AcDbMText
 10
544.0
 20
518.4520670391062
 30
0.0
 40
2.0
 41
99.38000000000004
 46
0.0
 71
     7
 72
     1
  1
\fArial|b0|i0|c0|p0;ISF 07.01.01     INSOFAST - WINDOW - CMU - INSET WINDOW - RETROFIT
 73
     1
 44
1.0
1001
CHIEFARC-LNWT
1070
    10
1001
CHIEFARC_RTFBINARY
1000

1001
CHIEFARC_SIMPLE_TEXT_BINARY
1000

1001
CHIEFARC-WIDTHEXPANDED
1070
     1
1001
CHIEFARC_AUTOHEIGHT
1070
     1
1001
CHIEFARC_AUTOWIDTH
1070
     1
  0
INSERT
  5
39D
330
1F
100
AcDbEntity
  8
_DEFAULT_CAD_LAYER
  6
Continuous
370
     0
100
AcDbBlockReference
  2
block34_1
 10
594.2362453338302
 20
546.783677300763
 30
0.0
 41
-1.049246275672715
 50
90.0
1001
CHIEFARC-LNWT
1070
     0
  0
INSERT
  5
3AA
330
1F
100
AcDbEntity
  8
_DEFAULT_CAD_LAYER
  6
Continuous
370
     0
100
AcDbBlockReference
  2
block35_1
 10
578.111910404991
 20
572.6423576026764
 30
0.0
 41
-0.816481456384181
 42
0.5839124478049023
 50
-90.0
1001
CHIEFARC-LNWT
1070
     0
  0
INSERT
  5
3AB
330
1F
100
AcDbEntity
  8
_DEFAULT_CAD_LAYER
100
AcDbBlockReference
  2
block34_1
 10
574.4687189721127
 20
599.9939565479115
 30
0.0
 41
-1.049246275672715
 50
-90.0
  0
ENDSEC
  0
SECTION
  2
OBJECTS
  0
DICTIONARY
  5
C
330
0
100
AcDbDictionary
281
     1
  3
ACAD_GROUP
350
D
  3
ACAD_LAYOUT
350
1A
  3
ACAD_MLEADERSTYLE
350
3AD
  3
ACAD_MLINESTYLE
350
17
  3
ACAD_PLOTSETTINGS
350
19
  3
ACAD_PLOTSTYLENAME
350
E
  3
ACAD_TABLESTYLE
350
3AC
  3
ACAD_VISUALSTYLE
350
2A
  0
DICTIONARY
  5
D
102
{ACAD_REACTORS
330
C
102
}
330
C
100
AcDbDictionary
281
     1
  0
DICTIONARY
  5
1A
102
{ACAD_REACTORS
330
C
102
}
330
C
100
AcDbDictionary
281
     1
  3
Layout1
350
1E
  3
Layout2
350
26
  3
Model
350
22
  0
DICTIONARY
  5
3AD
102
{ACAD_REACTORS
330
C
102
}
330
C
100
AcDbDictionary
281
     1
  0
DICTIONARY
  5
17
102
{ACAD_REACTORS
330
C
102
}
330
C
100
AcDbDictionary
281
     1
  3
Standard
350
18
  0
DICTIONARY
  5
19
102
{ACAD_REACTORS
330
C
102
}
330
C
100
AcDbDictionary
281
     1
  0
ACDBDICTIONARYWDFLT
  5
E
102
{ACAD_REACTORS
330
C
102
}
330
C
100
AcDbDictionary
281
     1
  3
Normal
350
F
100
AcDbDictionaryWithDefault
340
F
  0
DICTIONARY
  5
3AC
102
{ACAD_REACTORS
330
C
102
}
330
C
100
AcDbDictionary
281
     1
  0
DICTIONARY
  5
2A
102
{ACAD_REACTORS
330
C
102
}
330
C
100
AcDbDictionary
281
     1
  3
2dWireframe
350
2F
  3
3D Hidden
350
31
  3
3dWireframe
350
30
  3
Basic
350
32
  3
Brighten
350
36
  3
ColorChange
350
3A
  3
Conceptual
350
34
  3
Dim
350
35
  3
Facepattern
350
39
  3
Flat
350
2B
  3
FlatWithEdges
350
2C
  3
Gouraud
350
2D
  3
GouraudWithEdges
350
2E
  3
Linepattern
350
38
  3
Realistic
350
33
  3
Thicken
350
37
  0
LAYOUT
  5
1E
102
{ACAD_REACTORS
330
1A
102
}
330
1A
100
AcDbPlotSettings
  1

  2
none_device
  4

  6

 40
0.0
 41
0.0
 42
0.0
 43
0.0
 44
0.0
 45
0.0
 46
0.0
 47
0.0
 48
0.0
 49
0.0
140
0.0
141
0.0
142
1.0
143
1.0
 70
   688
 72
     0
 73
     0
 74
     5
  7

 75
    16
 76
     0
 77
     2
 78
   300
147
1.0
148
0.0
149
0.0
100
AcDbLayout
  1
Layout1
 70
     1
 71
     1
 10
0.0
 20
0.0
 11
12.0
 21
9.0
 12
0.0
 22
0.0
 32
0.0
 14
1.000000000000000E+20
 24
1.000000000000000E+20
 34
1.000000000000000E+20
 15
-1.000000000000000E+20
 25
-1.000000000000000E+20
 35
-1.000000000000000E+20
146
0.0
 13
0.0
 23
0.0
 33
0.0
 16
1.0
 26
0.0
 36
0.0
 17
0.0
 27
1.0
 37
0.0
 76
     0
330
1B
  0
LAYOUT
  5
26
102
{ACAD_REACTORS
330
1A
102
}
330
1A
100
AcDbPlotSettings
  1

  2
none_device
  4

  6

 40
0.0
 41
0.0
 42
0.0
 43
0.0
 44
0.0
 45
0.0
 46
0.0
 47
0.0
 48
0.0
 49
0.0
140
0.0
141
0.0
142
1.0
143
1.0
 70
   688
 72
     0
 73
     0
 74
     5
  7

 75
    16
 76
     0
 77
     2
 78
   300
147
1.0
148
0.0
149
0.0
100
AcDbLayout
  1
Layout2
 70
     1
 71
     2
 10
0.0
 20
0.0
 11
0.0
 21
0.0
 12
0.0
 22
0.0
 32
0.0
 14
0.0
 24
0.0
 34
0.0
 15
0.0
 25
0.0
 35
0.0
146
0.0
 13
0.0
 23
0.0
 33
0.0
 16
1.0
 26
0.0
 36
0.0
 17
0.0
 27
1.0
 37
0.0
 76
     0
330
23
  0
LAYOUT
  5
22
102
{ACAD_REACTORS
330
1A
102
}
330
1A
100
AcDbPlotSettings
  1

  2
none_device
  4

  6

 40
0.0
 41
0.0
 42
0.0
 43
0.0
 44
0.0
 45
0.0
 46
0.0
 47
0.0
 48
0.0
 49
0.0
140
0.0
141
0.0
142
1.0
143
1.0
 70
  1712
 72
     0
 73
     0
 74
     0
  7

 75
     0
 76
     0
 77
     2
 78
   300
147
1.0
148
0.0
149
0.0
100
AcDbLayout
  1
Model
 70
     1
 71
     0
 10
0.0
 20
0.0
 11
12.0
 21
9.0
 12
0.0
 22
0.0
 32
0.0
 14
0.0
 24
1.0
 34
0.0
 15
1.0
 25
0.0
 35
0.0
146
0.0
 13
0.0
 23
0.0
 33
0.0
 16
1.0
 26
0.0
 36
0.0
 17
0.0
 27
1.0
 37
0.0
 76
     0
330
1F
331
29
  0
MLINESTYLE
  5
18
102
{ACAD_REACTORS
330
17
102
}
330
17
100
AcDbMlineStyle
  2
Standard
 70
     0
  3

 62
   256
 51
90.0
 52
90.0
 71
     2
 49
0.5
 62
   256
  6
BYLAYER
 49
-0.5
 62
   256
  6
BYLAYER
  0
ACDBPLACEHOLDER
  5
F
102
{ACAD_REACTORS
330
E
102
}
330
E
  0
VISUALSTYLE
  5
2F
102
{ACAD_REACTORS
330
2A
102
}
330
2A
100
AcDbVisualStyle
  2
2dWireframe
 70
     4
 71
     0
 72
     2
 73
     0
 90
        0
 40
-0.6
 41
-30.0
 62
     5
 63
     7
421
 16777215
 74
     1
 91
        4
 64
     7
 65
   257
 75
     1
175
     1
 42
1.0
 92
        0
 66
   257
 43
1.0
 76
     1
 77
     6
 78
     2
 67
     7
 79
     5
170
     0
171
     0
290
     0
174
     0
 93
        1
 44
0.0
173
     0
291
     0
 45
0.0
  0
VISUALSTYLE
  5
31
102
{ACAD_REACTORS
330
2A
102
}
330
2A
100
AcDbVisualStyle
  2
3D Hidden
 70
     6
 71
     1
 72
     2
 73
     2
 90
        0
 40
-0.6
 41
-30.0
 62
     5
 63
     7
421
 16777215
 74
     2
 91
        2
 64
     7
 65
   257
 75
     2
175
     1
 42
40.0
 92
        0
 66
   257
 43
1.0
 76
     1
 77
     6
 78
     2
 67
     7
 79
     3
170
     0
171
     0
290
     0
174
     0
 93
        1
 44
0.0
173
     0
291
     0
 45
0.0
  0
VISUALSTYLE
  5
30
102
{ACAD_REACTORS
330
2A
102
}
330
2A
100
AcDbVisualStyle
  2
3dWireframe
 70
     5
 71
     0
 72
     2
 73
     0
 90
        0
 40
-0.6
 41
-30.0
 62
     5
 63
     7
421
 16777215
 74
     1
 91
        4
 64
     7
 65
   257
 75
     1
175
     1
 42
1.0
 92
        0
 66
   257
 43
1.0
 76
     1
 77
     6
 78
     2
 67
     7
 79
     5
170
     0
171
     0
290
     0
174
     0
 93
        1
 44
0.0
173
     0
291
     0
 45
0.0
  0
VISUALSTYLE
  5
32
102
{ACAD_REACTORS
330
2A
102
}
330
2A
100
AcDbVisualStyle
  2
Basic
 70
     7
 71
     1
 72
     0
 73
     1
 90
        0
 40
-0.6
 41
-30.0
 62
     5
 63
     7
421
 16777215
 74
     0
 91
        4
 64
     7
 65
   257
 75
     1
175
     1
 42
1.0
 92
        8
 66
     7
 43
1.0
 76
     1
 77
     6
 78
     2
 67
     7
 79
     5
170
     0
171
     0
290
     0
174
     0
 93
        1
 44
0.0
173
     0
291
     1
 45
0.0
  0
VISUALSTYLE
  5
36
102
{ACAD_REACTORS
330
2A
102
}
330
2A
100
AcDbVisualStyle
  2
Brighten
 70
    12
 71
     2
 72
     2
 73
     0
 90
        0
 40
-0.6
 41
-30.0
 62
     5
 63
     7
421
 16777215
 74
     1
 91
        4
 64
     7
 65
   257
 75
     1
175
     1
 42
1.0
 92
        8
 66
     7
 43
1.0
 76
     1
 77
     6
 78
     2
 67
     7
 79
     5
170
     0
171
     0
290
     0
174
     0
 93
        1
 44
50.0
173
     0
291
     1
 45
0.0
  0
VISUALSTYLE
  5
3A
102
{ACAD_REACTORS
330
2A
102
}
330
2A
100
AcDbVisualStyle
  2
ColorChange
 70
    16
 71
     2
 72
     2
 73
     3
 90
        0
 40
-0.6
 41
-30.0
 62
     5
 63
     8
421
  8421504
 74
     1
 91
        4
 64
     7
 65
   257
 75
     1
175
     1
 42
1.0
 92
        8
 66
     8
424
  8421504
 43
1.0
 76
     1
 77
     6
 78
     2
 67
     7
 79
     5
170
     0
171
     0
290
     0
174
     0
 93
        1
 44
0.0
173
     0
291
     1
 45
0.0
  0
VISUALSTYLE
  5
34
102
{ACAD_REACTORS
330
2A
102
}
330
2A
100
AcDbVisualStyle
  2
Conceptual
 70
     9
 71
     3
 72
     2
 73
     0
 90
        0
 40
-0.6
 41
-30.0
 62
     5
 63
     7
421
 16777215
 74
     2
 91
        2
 64
     7
 65
   257
 75
     1
175
     1
 42
40.0
 92
        8
 66
     7
 43
1.0
 76
     1
 77
     6
 78
     2
 67
     7
 79
     3
170
     0
171
     0
290
     0
174
     0
 93
        1
 44
0.0
173
     0
291
     0
 45
0.0
  0
VISUALSTYLE
  5
35
102
{ACAD_REACTORS
330
2A
102
}
330
2A
100
AcDbVisualStyle
  2
Dim
 70
    11
 71
     2
 72
     2
 73
     0
 90
        0
 40
-0.6
 41
-30.0
 62
     5
 63
     7
421
 16777215
 74
     1
 91
        4
 64
     7
 65
   257
 75
     1
175
     1
 42
1.0
 92
        8
 66
     7
 43
1.0
 76
     1
 77
     6
 78
     2
 67
     7
 79
     5
170
     0
171
     0
290
     0
174
     0
 93
        1
 44
-50.0
173
     0
291
     1
 45
0.0
  0
VISUALSTYLE
  5
39
102
{ACAD_REACTORS
330
2A
102
}
330
2A
100
AcDbVisualStyle
  2
Facepattern
 70
    15
 71
     2
 72
     2
 73
     0
 90
        0
 40
-0.6
 41
-30.0
 62
     5
 63
     7
421
 16777215
 74
     1
 91
        4
 64
     7
 65
   257
 75
     1
175
     1
 42
1.0
 92
        8
 66
     7
 43
1.0
 76
     1
 77
     6
 78
     2
 67
     7
 79
     5
170
     0
171
     0
290
     0
174
     0
 93
        1
 44
0.0
173
     0
291
     1
 45
0.0
  0
VISUALSTYLE
  5
2B
102
{ACAD_REACTORS
330
2A
102
}
330
2A
100
AcDbVisualStyle
  2
Flat
 70
     0
 71
     2
 72
     1
 73
     1
 90
        2
 40
-0.6
 41
30.0
 62
     5
 63
     7
421
 16777215
 74
     0
 91
        4
 64
     7
 65
   257
 75
     1
175
     1
 42
1.0
 92
        8
 66
     7
 43
1.0
 76
     1
 77
     6
 78
     2
 67
     7
 79
     5
170
     0
171
     0
290
     0
174
     0
 93
       13
 44
0.0
173
     0
291
     1
 45
0.0
  0
VISUALSTYLE
  5
2C
102
{ACAD_REACTORS
330
2A
102
}
330
2A
100
AcDbVisualStyle
  2
FlatWithEdges
 70
     1
 71
     2
 72
     1
 73
     1
 90
        2
 40
-0.6
 41
30.0
 62
     5
 63
     7
421
 16777215
 74
     1
 91
        4
 64
     7
 65
   257
 75
     1
175
     1
 42
1.0
 92
        0
 66
   257
 43
1.0
 76
     1
 77
     6
 78
     2
 67
     7
 79
     5
170
     0
171
     0
290
     0
174
     0
 93
       13
 44
0.0
173
     0
291
     1
 45
0.0
  0
VISUALSTYLE
  5
2D
102
{ACAD_REACTORS
330
2A
102
}
330
2A
100
AcDbVisualStyle
  2
Gouraud
 70
     2
 71
     2
 72
     2
 73
     1
 90
        2
 40
-0.6
 41
30.0
 62
     5
 63
     7
421
 16777215
 74
     0
 91
        4
 64
     7
 65
   257
 75
     1
175
     1
 42
1.0
 92
        0
 66
     7
 43
1.0
 76
     1
 77
     6
 78
     2
 67
     7
 79
     5
170
     0
171
     0
290
     0
174
     0
 93
       13
 44
0.0
173
     0
291
     1
 45
0.0
  0
VISUALSTYLE
  5
2E
102
{ACAD_REACTORS
330
2A
102
}
330
2A
100
AcDbVisualStyle
  2
GouraudWithEdges
 70
     3
 71
     2
 72
     2
 73
     1
 90
        2
 40
-0.6
 41
30.0
 62
     5
 63
     7
421
 16777215
 74
     1
 91
        4
 64
     7
 65
   257
 75
     1
175
     1
 42
1.0
 92
        0
 66
   257
 43
1.0
 76
     1
 77
     6
 78
     2
 67
     7
 79
     5
170
     0
171
     0
290
     0
174
     0
 93
       13
 44
0.0
173
     0
291
     1
 45
0.0
  0
VISUALSTYLE
  5
38
102
{ACAD_REACTORS
330
2A
102
}
330
2A
100
AcDbVisualStyle
  2
Linepattern
 70
    14
 71
     2
 72
     2
 73
     0
 90
        0
 40
-0.6
 41
-30.0
 62
     5
 63
     7
421
 16777215
 74
     1
 91
        4
 64
     7
 65
   257
 75
     7
175
     7
 42
1.0
 92
        8
 66
     7
 43
1.0
 76
     1
 77
     6
 78
     2
 67
     7
 79
     5
170
     0
171
     0
290
     0
174
     0
 93
        1
 44
0.0
173
     0
291
     1
 45
0.0
  0
VISUALSTYLE
  5
33
102
{ACAD_REACTORS
330
2A
102
}
330
2A
100
AcDbVisualStyle
  2
Realistic
 70
     8
 71
     2
 72
     2
 73
     0
 90
        0
 40
-0.6
 41
-30.0
 62
     5
 63
     7
421
 16777215
 74
     1
 91
        0
 64
     7
 65
   257
 75
     1
175
     1
 42
1.0
 92
        8
 66
     8
424
  7895160
 43
1.0
 76
     1
 77
     6
 78
     2
 67
     7
 79
     5
170
     0
171
     0
290
     0
174
     0
 93
       13
 44
0.0
173
     0
291
     0
 45
0.0
  0
VISUALSTYLE
  5
37
102
{ACAD_REACTORS
330
2A
102
}
330
2A
100
AcDbVisualStyle
  2
Thicken
 70
    13
 71
     2
 72
     2
 73
     0
 90
        0
 40
-0.6
 41
-30.0
 62
     5
 63
     7
421
 16777215
 74
     1
 91
        4
 64
     7
 65
   257
 75
     1
175
     1
 42
1.0
 92
       12
 66
     7
 43
1.0
 76
     1
 77
     6
 78
     2
 67
     7
 79
     5
170
     0
171
     0
290
     0
174
     0
 93
        1
 44
0.0
173
     0
291
     1
 45
0.0
  0
ENDSEC
  0
EOF
