  0
SECTION
  2
HEADER
  9
$ACADVER
  1
AC1021
  9
$ACADMAINTVER
 70
    25
  9
$DWGCODEPAGE
  3
ANSI_1252
  9
$COMMENTS
  1
Chief Architect X2; Version 12.6.0.25; Chief Architect, Inc.; 2009
  9
$INSBASE
 10
0.0
 20
0.0
 30
0.0
  9
$EXTMIN
 10
0.0
 20
1.0
 30
0.0
  9
$EXTMAX
 10
1.0
 20
0.0
 30
0.0
  9
$LIMMIN
 10
0.0
 20
0.0
  9
$LIMMAX
 10
12.0
 20
9.0
  9
$ORTHOMODE
 70
     0
  9
$REGENMODE
 70
     1
  9
$FILLMODE
 70
     1
  9
$QTEXTMODE
 70
     0
  9
$MIRRTEXT
 70
     1
  9
$LTSCALE
 40
96.0
  9
$ATTMODE
 70
     1
  9
$TEXTSIZE
 40
0.2
  9
$TRACEWID
 40
0.05
  9
$TEXTSTYLE
  7
Standard
  9
$CLAYER
  8
0
  9
$CELTYPE
  6
ByLayer
  9
$CECOLOR
 62
   256
  9
$CELTSCALE
 40
1.0
  9
$DISPSILH
 70
     0
  9
$DIMSCALE
 40
1.0
  9
$DIMASZ
 40
5.0
  9
$DIMEXO
 40
3.0
  9
$DIMDLI
 40
0.38
  9
$DIMRND
 40
0.0
  9
$DIMDLE
 40
0.0
  9
$DIMEXE
 40
3.0
  9
$DIMTP
 40
0.0
  9
$DIMTM
 40
0.0
  9
$DIMTXT
 40
6.0
  9
$DIMCEN
 40
0.09
  9
$DIMTSZ
 40
0.0
  9
$DIMTOL
 70
     0
  9
$DIMLIM
 70
     0
  9
$DIMTIH
 70
     0
  9
$DIMTOH
 70
     0
  9
$DIMSE1
 70
     0
  9
$DIMSE2
 70
     0
  9
$DIMTAD
 70
     0
  9
$DIMZIN
 70
     0
  9
$DIMBLK
  1

  9
$DIMASO
 70
     1
  9
$DIMSHO
 70
     1
  9
$DIMPOST
  1

  9
$DIMAPOST
  1

  9
$DIMALT
 70
     0
  9
$DIMALTD
 70
     0
  9
$DIMALTF
 40
1.0
  9
$DIMLFAC
 40
1.0
  9
$DIMTOFL
 70
     0
  9
$DIMTVP
 40
0.0
  9
$DIMTIX
 70
     0
  9
$DIMSOXD
 70
     0
  9
$DIMSAH
 70
     0
  9
$DIMBLK1
  1

  9
$DIMBLK2
  1

  9
$DIMSTYLE
  2
Standard
  9
$DIMCLRD
 70
     0
  9
$DIMCLRE
 70
     0
  9
$DIMCLRT
 70
     0
  9
$DIMTFAC
 40
1.0
  9
$DIMGAP
 40
0.5
  9
$DIMJUST
 70
     0
  9
$DIMSD1
 70
     0
  9
$DIMSD2
 70
     0
  9
$DIMTOLJ
 70
     1
  9
$DIMTZIN
 70
     0
  9
$DIMALTZ
 70
    12
  9
$DIMALTTZ
 70
     0
  9
$DIMUPT
 70
     0
  9
$DIMDEC
 70
     4
  9
$DIMTDEC
 70
     4
  9
$DIMALTU
 70
     2
  9
$DIMALTTD
 70
     2
  9
$DIMTXSTY
  7
Standard
  9
$DIMAUNIT
 70
     0
  9
$DIMADEC
 70
     0
  9
$DIMALTRND
 40
0.0
  9
$DIMAZIN
 70
     0
  9
$DIMDSEP
 70
    46
  9
$DIMATFIT
 70
     3
  9
$DIMFRAC
 70
     2
  9
$DIMLDRBLK
  1

  9
$DIMLUNIT
 70
     4
  9
$DIMLWD
 70
    -2
  9
$DIMLWE
 70
    -2
  9
$DIMTMOVE
 70
     0
  9
$DIMFXL
 40
3.0
  9
$DIMFXLON
 70
     0
  9
$DIMJOGANG
 40
0.7853981633974483
  9
$DIMTFILL
 70
     0
  9
$DIMTFILLCLR
 70
     0
  9
$DIMARCSYM
 70
     0
  9
$DIMLTYPE
  6

  9
$DIMLTEX1
  6

  9
$DIMLTEX2
  6

  9
$LUNITS
 70
     2
  9
$LUPREC
 70
     4
  9
$SKETCHINC
 40
0.1
  9
$FILLETRAD
 40
0.5
  9
$AUNITS
 70
     0
  9
$AUPREC
 70
     0
  9
$MENU
  1
.
  9
$ELEVATION
 40
0.0
  9
$PELEVATION
 40
0.0
  9
$THICKNESS
 40
0.0
  9
$LIMCHECK
 70
     0
  9
$CHAMFERA
 40
0.5
  9
$CHAMFERB
 40
0.5
  9
$CHAMFERC
 40
1.0
  9
$CHAMFERD
 40
0.0
  9
$SKPOLY
 70
     0
  9
$TDCREATE
 40
2455498.707342859
  9
$TDUCREATE
 40
2455498.915676192
  9
$TDUPDATE
 40
2455498.707342871
  9
$TDUUPDATE
 40
2455498.915676204
  9
$TDINDWG
 40
0.0000000116
  9
$TDUSRTIMER
 40
0.0000000116
  9
$USRTIMER
 70
     1
  9
$ANGBASE
 50
0.0
  9
$ANGDIR
 70
     0
  9
$PDMODE
 70
     0
  9
$PDSIZE
 40
0.0
  9
$PLINEWID
 40
0.0
  9
$SPLFRAME
 70
     0
  9
$SPLINETYPE
 70
     6
  9
$SPLINESEGS
 70
     8
  9
$HANDSEED
  5
2A0
  9
$SURFTAB1
 70
     6
  9
$SURFTAB2
 70
     6
  9
$SURFTYPE
 70
     6
  9
$SURFU
 70
     6
  9
$SURFV
 70
     6
  9
$UCSBASE
  2

  9
$UCSNAME
  2

  9
$UCSORG
 10
0.0
 20
0.0
 30
0.0
  9
$UCSXDIR
 10
1.0
 20
0.0
 30
0.0
  9
$UCSYDIR
 10
0.0
 20
1.0
 30
0.0
  9
$UCSORTHOREF
  2

  9
$UCSORTHOVIEW
 70
     0
  9
$UCSORGTOP
 10
0.0
 20
0.0
 30
0.0
  9
$UCSORGBOTTOM
 10
0.0
 20
0.0
 30
0.0
  9
$UCSORGLEFT
 10
0.0
 20
0.0
 30
0.0
  9
$UCSORGRIGHT
 10
0.0
 20
0.0
 30
0.0
  9
$UCSORGFRONT
 10
0.0
 20
0.0
 30
0.0
  9
$UCSORGBACK
 10
0.0
 20
0.0
 30
0.0
  9
$PUCSBASE
  2

  9
$PUCSNAME
  2

  9
$PUCSORG
 10
0.0
 20
0.0
 30
0.0
  9
$PUCSXDIR
 10
1.0
 20
0.0
 30
0.0
  9
$PUCSYDIR
 10
0.0
 20
1.0
 30
0.0
  9
$PUCSORTHOREF
  2

  9
$PUCSORTHOVIEW
 70
     0
  9
$PUCSORGTOP
 10
0.0
 20
0.0
 30
0.0
  9
$PUCSORGBOTTOM
 10
0.0
 20
0.0
 30
0.0
  9
$PUCSORGLEFT
 10
0.0
 20
0.0
 30
0.0
  9
$PUCSORGRIGHT
 10
0.0
 20
0.0
 30
0.0
  9
$PUCSORGFRONT
 10
0.0
 20
0.0
 30
0.0
  9
$PUCSORGBACK
 10
0.0
 20
0.0
 30
0.0
  9
$USERI1
 70
     0
  9
$USERI2
 70
     0
  9
$USERI3
 70
     0
  9
$USERI4
 70
     0
  9
$USERI5
 70
     0
  9
$USERR1
 40
0.0
  9
$USERR2
 40
0.0
  9
$USERR3
 40
0.0
  9
$USERR4
 40
0.0
  9
$USERR5
 40
0.0
  9
$WORLDVIEW
 70
     1
  9
$SHADEDGE
 70
     3
  9
$SHADEDIF
 70
    70
  9
$TILEMODE
 70
     1
  9
$MAXACTVP
 70
    64
  9
$PINSBASE
 10
0.0
 20
0.0
 30
0.0
  9
$PLIMCHECK
 70
     0
  9
$PEXTMIN
 10
1.000000000000000E+20
 20
1.000000000000000E+20
 30
1.000000000000000E+20
  9
$PEXTMAX
 10
-1.000000000000000E+20
 20
-1.000000000000000E+20
 30
-1.000000000000000E+20
  9
$PLIMMIN
 10
0.0
 20
0.0
  9
$PLIMMAX
 10
12.0
 20
9.0
  9
$UNITMODE
 70
     0
  9
$VISRETAIN
 70
     1
  9
$PLINEGEN
 70
     0
  9
$PSLTSCALE
 70
     1
  9
$TREEDEPTH
 70
  3020
  9
$CMLSTYLE
  2
Standard
  9
$CMLJUST
 70
     0
  9
$CMLSCALE
 40
1.0
  9
$PROXYGRAPHICS
 70
     1
  9
$MEASUREMENT
 70
     0
  9
$CELWEIGHT
370
    -1
  9
$ENDCAPS
280
     0
  9
$JOINSTYLE
280
     0
  9
$LWDISPLAY
290
     0
  9
$INSUNITS
 70
     1
  9
$HYPERLINKBASE
  1

  9
$STYLESHEET
  1

  9
$XEDIT
290
     1
  9
$CEPSNTYPE
380
     0
  9
$PSTYLEMODE
290
     1
  9
$FINGERPRINTGUID
  2
{CDB0A496-2843-4ADE-A7F8-3FCC1671AC43}
  9
$VERSIONGUID
  2
{FAEB1C32-E019-11D5-929B-00C0DF256EC4}
  9
$EXTNAMES
290
     1
  9
$PSVPSCALE
 40
0.0
  9
$OLESTARTUP
290
     0
  9
$SORTENTS
280
   127
  9
$INDEXCTL
280
     0
  9
$HIDETEXT
280
     1
  9
$XCLIPFRAME
290
     0
  9
$HALOGAP
280
     0
  9
$OBSCOLOR
 70
   257
  9
$OBSLTYPE
280
     0
  9
$INTERSECTIONDISPLAY
280
     0
  9
$INTERSECTIONCOLOR
 70
   257
  9
$DIMASSOC
280
     2
  9
$PROJECTNAME
  1

  9
$CAMERADISPLAY
290
     0
  9
$LENSLENGTH
 40
50.0
  9
$CAMERAHEIGHT
 40
0.0
  9
$STEPSPERSEC
 40
2.0
  9
$STEPSIZE
 40
6.0
  9
$3DDWFPREC
 40
2.0
  9
$PSOLWIDTH
 40
0.25
  9
$PSOLHEIGHT
 40
4.0
  9
$LOFTANG1
 40
1.570796326794897
  9
$LOFTANG2
 40
1.570796326794897
  9
$LOFTMAG1
 40
0.0
  9
$LOFTMAG2
 40
0.0
  9
$LOFTPARAM
 70
     7
  9
$LOFTNORMALS
280
     1
  9
$LATITUDE
 40
37.795
  9
$LONGITUDE
 40
-122.394
  9
$NORTHDIRECTION
 40
0.0
  9
$TIMEZONE
 70
 -8000
  9
$LIGHTGLYPHDISPLAY
280
     1
  9
$TILEMODELIGHTSYNCH
280
     1
  9
$SOLIDHIST
280
     1
  9
$SHOWHIST
280
     1
  9
$DWFFRAME
280
     2
  9
$DGNFRAME
280
     2
  9
$REALWORLDSCALE
290
     1
  9
$INTERFERECOLOR
 62
   256
  9
$CSHADOW
280
     0
  9
$SHADOWPLANELOCATION
 40
0.0
  0
ENDSEC
  0
SECTION
  2
CLASSES
  0
CLASS
  1
ACDBDICTIONARYWDFLT
  2
AcDbDictionaryWithDefault
  3
ObjectDBX Classes
 90
        0
 91
        4
280
     0
281
     0
  0
CLASS
  1
VISUALSTYLE
  2
AcDbVisualStyle
  3
ObjectDBX Classes
 90
     4095
 91
        4
280
     0
281
     0
  0
ENDSEC
  0
SECTION
  2
TABLES
  0
TABLE
  2
VPORT
  5
8
330
0
100
AcDbSymbolTable
 70
     1
  0
VPORT
  5
29
330
8
100
AcDbSymbolTableRecord
100
AcDbViewportTableRecord
  2
*Active
 70
     0
 10
0.0
 20
0.0
 11
1.0
 21
1.0
 12
10.42990654205607
 22
4.5
 13
0.0
 23
0.0
 14
0.5
 24
0.5
 15
0.5
 25
0.5
 16
0.0
 26
0.0
 36
1.0
 17
0.0
 27
0.0
 37
0.0
 40
9.0
 41
1.972972972850329
 42
50.0
 43
0.0
 44
0.0
 50
0.0
 51
0.0
 71
     0
 72
   100
 73
     1
 74
     3
 75
     0
 76
     0
 77
     0
 78
     0
281
     0
 65
     1
110
0.0
120
0.0
130
0.0
111
1.0
121
0.0
131
0.0
112
0.0
122
1.0
132
0.0
 79
     0
146
0.0
 60
     3
 61
     5
292
     1
282
     1
141
0.0
142
0.0
 63
   250
  0
ENDTAB
  0
TABLE
  2
LTYPE
  5
5
330
0
100
AcDbSymbolTable
 70
     2
  0
LTYPE
  5
14
330
5
100
AcDbSymbolTableRecord
100
AcDbLinetypeTableRecord
  2
ByBlock
 70
     0
  3

 72
    65
 73
     0
 40
0.0
  0
LTYPE
  5
15
330
5
100
AcDbSymbolTableRecord
100
AcDbLinetypeTableRecord
  2
ByLayer
 70
     0
  3

 72
    65
 73
     0
 40
0.0
  0
LTYPE
  5
16
330
5
100
AcDbSymbolTableRecord
100
AcDbLinetypeTableRecord
  2
Continuous
 70
     0
  3
Solid line
 72
    65
 73
     0
 40
0.0
  0
LTYPE
  5
263
330
5
100
AcDbSymbolTableRecord
100
AcDbLinetypeTableRecord
  2
ISO08W100
 70
     0
  3
ISO08W100 LINE
 72
    65
 73
     4
 40
0.96
 49
0.48
 74
     0
 49
-0.12
 74
     0
 49
0.24
 74
     0
 49
-0.12
 74
     0
  0
ENDTAB
  0
TABLE
  2
LAYER
  5
2
330
0
100
AcDbSymbolTable
 70
     4
  0
LAYER
  5
10
330
2
100
AcDbSymbolTableRecord
100
AcDbLayerTableRecord
  2
0
 70
     0
 62
     7
  6
Continuous
370
    -3
390
F
347
0
  0
LAYER
  5
3C
330
2
100
AcDbSymbolTableRecord
100
AcDbLayerTableRecord
  2
_DEFAULT_CAD_LAYER
 70
     0
 62
     7
  6
Continuous
370
    18
390
F
347
0
  0
LAYER
  5
265
330
2
100
AcDbSymbolTableRecord
100
AcDbLayerTableRecord
  2
Text
 70
     0
 62
   156
  6
Continuous
370
     9
390
F
347
0
1001
CHIEFARC-LNWT
1070
    10
  0
ENDTAB
  0
TABLE
  2
STYLE
  5
3
330
0
100
AcDbSymbolTable
 70
     1
  0
STYLE
  5
11
330
3
100
AcDbSymbolTableRecord
100
AcDbTextStyleTableRecord
  2
Standard
 70
     0
 40
0.0
 41
1.0
 50
0.0
 71
     0
 42
0.2
  3
txt
  4

  0
ENDTAB
  0
TABLE
  2
VIEW
  5
6
330
0
100
AcDbSymbolTable
 70
     0
  0
ENDTAB
  0
TABLE
  2
UCS
  5
7
330
0
100
AcDbSymbolTable
 70
     0
  0
ENDTAB
  0
TABLE
  2
APPID
  5
9
330
0
100
AcDbSymbolTable
 70
     7
  0
APPID
  5
12
330
9
100
AcDbSymbolTableRecord
100
AcDbRegAppTableRecord
  2
ACAD
 70
     0
  0
APPID
  5
47
330
9
100
AcDbSymbolTableRecord
100
AcDbRegAppTableRecord
  2
CHIEFARC-LNWT
 70
     0
  0
APPID
  5
267
330
9
100
AcDbSymbolTableRecord
100
AcDbRegAppTableRecord
  2
CHIEFARC_RTFBINARY
 70
     0
  0
APPID
  5
268
330
9
100
AcDbSymbolTableRecord
100
AcDbRegAppTableRecord
  2
CHIEFARC_SIMPLE_TEXT_BINARY
 70
     0
  0
APPID
  5
269
330
9
100
AcDbSymbolTableRecord
100
AcDbRegAppTableRecord
  2
CHIEFARC-WIDTHEXPANDED
 70
     0
  0
APPID
  5
26A
330
9
100
AcDbSymbolTableRecord
100
AcDbRegAppTableRecord
  2
CHIEFARC_AUTOHEIGHT
 70
     0
  0
APPID
  5
26B
330
9
100
AcDbSymbolTableRecord
100
AcDbRegAppTableRecord
  2
CHIEFARC_AUTOWIDTH
 70
     0
  0
ENDTAB
  0
TABLE
  2
DIMSTYLE
  5
A
330
0
100
AcDbSymbolTable
 70
     2
100
AcDbDimStyleTable
  0
DIMSTYLE
105
27
330
A
100
AcDbSymbolTableRecord
100
AcDbDimStyleTableRecord
  2
Standard
 70
     0
340
11
  0
DIMSTYLE
105
3B
330
A
100
AcDbSymbolTableRecord
100
AcDbDimStyleTableRecord
  2
CHIEF
 70
     0
 41
5.0
 42
3.0
 44
3.0
 49
3.0
 73
     0
 74
     0
140
6.0
143
1.0
147
0.5
171
     0
276
     2
277
     4
285
    12
340
11
  0
ENDTAB
  0
TABLE
  2
BLOCK_RECORD
  5
1
330
0
100
AcDbSymbolTable
 70
     6
  0
BLOCK_RECORD
  5
1F
330
1
100
AcDbSymbolTableRecord
100
AcDbBlockTableRecord
  2
*Model_Space
340
22
 70
     0
280
     1
281
     0
  0
BLOCK_RECORD
  5
1B
330
1
100
AcDbSymbolTableRecord
100
AcDbBlockTableRecord
  2
*Paper_Space
340
1E
 70
     0
280
     1
281
     0
  0
BLOCK_RECORD
  5
23
330
1
100
AcDbSymbolTableRecord
100
AcDbBlockTableRecord
  2
*Paper_Space0
340
26
 70
     0
280
     1
281
     0
  0
BLOCK_RECORD
  5
49
330
1
100
AcDbSymbolTableRecord
100
AcDbBlockTableRecord
  2
block77
340
0
102
{BLKREFS
331
1FA
331
228
102
}
 70
     0
280
     1
281
     0
  0
BLOCK_RECORD
  5
21D
330
1
100
AcDbSymbolTableRecord
100
AcDbBlockTableRecord
  2
block9_0
340
0
102
{BLKREFS
331
222
331
25C
102
}
 70
     0
280
     1
281
     0
  0
BLOCK_RECORD
  5
24B
330
1
100
AcDbSymbolTableRecord
100
AcDbBlockTableRecord
  2
block35_1
340
0
102
{BLKREFS
331
25B
102
}
 70
     0
280
     1
281
     0
  0
BLOCK_RECORD
  5
253
330
1
100
AcDbSymbolTableRecord
100
AcDbBlockTableRecord
  2
Break_Line
340
0
102
{BLKREFS
331
257
331
258
331
27E
102
}
 70
     0
280
     1
281
     0
  0
BLOCK_RECORD
  5
276
330
1
100
AcDbSymbolTableRecord
100
AcDbBlockTableRecord
  2
block34_1
340
0
102
{BLKREFS
331
281
331
294
102
}
 70
     0
280
     1
281
     0
  0
ENDTAB
  0
ENDSEC
  0
SECTION
  2
BLOCKS
  0
BLOCK
  5
20
330
1F
100
AcDbEntity
  8
0
100
AcDbBlockBegin
  2
*Model_Space
 70
     0
 10
0.0
 20
0.0
 30
0.0
  3
*Model_Space
  1

  0
ENDBLK
  5
21
330
1F
100
AcDbEntity
  8
0
100
AcDbBlockEnd
  0
BLOCK
  5
1C
330
1B
100
AcDbEntity
 67
     1
  8
0
100
AcDbBlockBegin
  2
*Paper_Space
 70
     0
 10
0.0
 20
0.0
 30
0.0
  3
*Paper_Space
  1

  0
ENDBLK
  5
1D
330
1B
100
AcDbEntity
 67
     1
  8
0
100
AcDbBlockEnd
  0
BLOCK
  5
24
330
23
100
AcDbEntity
  8
0
100
AcDbBlockBegin
  2
*Paper_Space0
 70
     0
 10
0.0
 20
0.0
 30
0.0
  3
*Paper_Space0
  1

  0
ENDBLK
  5
25
330
23
100
AcDbEntity
  8
0
100
AcDbBlockEnd
  0
BLOCK
  5
1F8
330
49
100
AcDbEntity
  8
0
100
AcDbBlockBegin
  2
block77
 70
     0
 10
0.0
 20
0.0
 30
0.0
  3
block77
  1

  0
LINE
  5
4A
330
49
100
AcDbEntity
  8
0
 62
   252
370
     0
100
AcDbLine
 10
6.478845156593194
 20
3.133439319122425
 30
0.0
 11
6.719890510225646
 21
3.420705985292042
 31
0.0
  0
LINE
  5
4B
330
49
100
AcDbEntity
  8
0
 62
   252
370
     0
100
AcDbLine
 10
0.0000000000000009
 20
0.0
 30
0.0
 11
0.2410453536324526
 21
0.2872666661696161
 31
0.0
  0
LINE
  5
4C
330
49
100
AcDbEntity
  8
0
 62
   252
370
     0
100
AcDbLine
 10
2.892544243589427
 20
3.447199994035401
 30
0.0
 11
3.13358959722188
 21
3.734466660205017
 31
0.0
  0
LINE
  5
4D
330
49
100
AcDbEntity
  8
0
 62
   252
370
     0
100
AcDbLine
 10
5.785088487178855
 20
6.894399988070802
 30
0.0
 11
6.026133840811307
 21
7.181666654240419
 31
0.0
  0
LINE
  5
4E
330
49
100
AcDbEntity
  8
0
 62
   252
370
     0
100
AcDbLine
 10
-3.586300913003767
 20
0.3137606749129757
 30
0.0
 11
-3.345255559371315
 21
0.6010273410825923
 31
0.0
  0
LINE
  5
4F
330
49
100
AcDbEntity
  8
0
 62
   252
370
     0
100
AcDbLine
 10
-0.6937566694143407
 20
3.760960668948377
 30
0.0
 11
-0.4527113157818885
 21
4.048227335117994
 31
0.0
  0
LINE
  5
50
330
49
100
AcDbEntity
  8
0
 62
   252
370
     0
100
AcDbLine
 10
2.198787574175086
 20
7.208160662983778
 30
0.0
 11
2.439832927807537
 21
7.495427329153393
 31
0.0
  0
LINE
  5
51
330
49
100
AcDbEntity
  8
0
 62
   252
370
     0
100
AcDbLine
 10
5.091331817764512
 20
10.65536065701918
 30
0.0
 11
5.332377171396964
 21
10.94262732318879
 31
0.0
  0
LINE
  5
52
330
49
100
AcDbEntity
  8
0
 62
   252
370
     0
100
AcDbLine
 10
-7.172601826007535
 20
0.6275213498259526
 30
0.0
 11
-6.931556472375083
 21
0.9147880159955692
 31
0.0
  0
LINE
  5
53
330
49
100
AcDbEntity
  8
0
 62
   252
370
     0
100
AcDbLine
 10
-4.280057582418108
 20
4.074721343861353
 30
0.0
 11
-4.039012228785656
 21
4.36198801003097
 31
0.0
  0
LINE
  5
54
330
49
100
AcDbEntity
  8
0
 62
   252
370
     0
100
AcDbLine
 10
-1.38751333882868
 20
7.521921337896754
 30
0.0
 11
-1.146467985196227
 21
7.809188004066371
 31
0.0
  0
LINE
  5
55
330
49
100
AcDbEntity
  8
0
 62
   252
370
     0
100
AcDbLine
 10
1.505030904760748
 20
10.96912133193215
 30
0.0
 11
1.7460762583932
 21
11.25638799810177
 31
0.0
  0
LINE
  5
56
330
49
100
AcDbEntity
  8
0
 62
   252
370
     0
100
AcDbLine
 10
-7.866358495421875
 20
4.388482018774329
 30
0.0
 11
-7.625313141789422
 21
4.675748684943945
 31
0.0
  0
LINE
  5
57
330
49
100
AcDbEntity
  8
0
 62
   252
370
     0
100
AcDbLine
 10
-4.973814251832447
 20
7.835682012809729
 30
0.0
 11
-4.732768898199995
 21
8.122948678979345
 31
0.0
  0
LINE
  5
58
330
49
100
AcDbEntity
  8
0
 62
   252
370
     0
100
AcDbLine
 10
-2.08127000824302
 20
11.28288200684513
 30
0.0
 11
-1.840224654610568
 21
11.57014867301475
 31
0.0
  0
LINE
  5
59
330
49
100
AcDbEntity
  8
0
 62
   252
370
     0
100
AcDbLine
 10
-5.667570921246786
 20
11.59664268175811
 30
0.0
 11
-5.426525567614333
 21
11.88390934792772
 31
0.0
  0
LINE
  5
5A
330
49
100
AcDbEntity
  8
0
 62
   252
370
     0
100
AcDbLine
 10
-3.586300913130284
 20
0.3137606738915695
 30
0.0
 11
-3.287442503702761
 21
0.2876139510672721
 31
0.0
  0
LINE
  5
5B
330
49
100
AcDbEntity
  8
0
 62
   252
370
     0
100
AcDbLine
 10
-7.172601826260569
 20
0.6275213477831391
 30
0.0
 11
-6.873743416833045
 21
0.6013746249588415
 31
0.0
  0
LINE
  5
5C
330
49
100
AcDbEntity
  8
0
 62
   252
370
     0
100
AcDbLine
 10
6.478845158195566
 20
3.133439320716919
 30
0.0
 11
6.77770356762309
 21
3.107292597892621
 31
0.0
  0
LINE
  5
5D
330
49
100
AcDbEntity
  8
0
 62
   252
370
     0
100
AcDbLine
 10
2.892544245065281
 20
3.447199994608488
 30
0.0
 11
3.191402654492805
 21
3.421053271784191
 31
0.0
  0
LINE
  5
5E
330
49
100
AcDbEntity
  8
0
 62
   252
370
     0
100
AcDbLine
 10
-0.6937566680650025
 20
3.760960668500058
 30
0.0
 11
-0.3948982586374785
 21
3.73481394567576
 31
0.0
  0
LINE
  5
5F
330
49
100
AcDbEntity
  8
0
 62
   252
370
     0
100
AcDbLine
 10
-4.280057581195287
 20
4.074721342391628
 30
0.0
 11
-3.981199171767762
 21
4.04857461956733
 31
0.0
  0
LINE
  5
60
330
49
100
AcDbEntity
  8
0
 62
   252
370
     0
100
AcDbLine
 10
-7.866358494325571
 20
4.388482016283198
 30
0.0
 11
-7.567500084898047
 21
4.3623352934589
 31
0.0
  0
LINE
  5
61
330
49
100
AcDbEntity
  8
0
 62
   252
370
     0
100
AcDbLine
 10
5.785088490130565
 20
6.894399989216979
 30
0.0
 11
6.083946899558088
 21
6.868253266392681
 31
0.0
  0
LINE
  5
62
330
49
100
AcDbEntity
  8
0
 62
   252
370
     0
100
AcDbLine
 10
2.198787577000281
 20
7.208160663108549
 30
0.0
 11
2.497645986427804
 21
7.182013940284252
 31
0.0
  0
LINE
  5
63
330
49
100
AcDbEntity
  8
0
 62
   252
370
     0
100
AcDbLine
 10
-1.387513336130003
 20
7.521921337000117
 30
0.0
 11
-1.088654926702479
 21
7.49577461417582
 31
0.0
  0
LINE
  5
64
330
49
100
AcDbEntity
  8
0
 62
   252
370
     0
100
AcDbLine
 10
-4.973814249260286
 20
7.835682010891687
 30
0.0
 11
-4.674955839832762
 21
7.80953528806739
 31
0.0
  0
LINE
  5
65
330
49
100
AcDbEntity
  8
0
 62
   252
370
     0
100
AcDbLine
 10
5.091331822065566
 20
10.65536065771704
 30
0.0
 11
5.39019023149309
 21
10.62921393489274
 31
0.0
  0
LINE
  5
66
330
49
100
AcDbEntity
  8
0
 62
   252
370
     0
100
AcDbLine
 10
1.505030908935283
 20
10.96912133160861
 30
0.0
 11
1.803889318362807
 21
10.94297460878431
 31
0.0
  0
LINE
  5
67
330
49
100
AcDbEntity
  8
0
 62
   252
370
     0
100
AcDbLine
 10
-2.081270004195
 20
11.28288200550018
 30
0.0
 11
-1.782411594767478
 21
11.25673528267588
 31
0.0
  0
LINE
  5
68
330
49
100
AcDbEntity
  8
0
 62
   252
370
     0
100
AcDbLine
 10
-5.667570917325286
 20
11.59664267939175
 30
0.0
 11
-5.36871250789776
 21
11.57049595656745
 31
0.0
  0
LINE
  5
69
330
49
100
AcDbEntity
  8
0
 62
   252
370
     0
100
AcDbLine
 10
-6.87374287913955
 20
0.6013802822192841
 30
0.0
 11
-6.931555688393342
 21
0.9147937066559014
 31
0.0
  0
LINE
  5
6A
330
49
100
AcDbEntity
  8
0
 62
   252
370
     0
100
AcDbLine
 10
-7.567496610139214
 20
4.362341483633695
 30
0.0
 11
-7.625309419393007
 21
4.675754908070312
 31
0.0
  0
LINE
  5
6B
330
49
100
AcDbEntity
  8
0
 62
   252
370
     0
100
AcDbLine
 10
-3.287442239569773
 20
0.2876167911096422
 30
0.0
 11
-3.345255048823566
 21
0.6010302155462593
 31
0.0
  0
LINE
  5
6C
330
49
100
AcDbEntity
  8
0
 62
   252
370
     0
100
AcDbLine
 10
-3.98119597056944
 20
4.048577992524052
 30
0.0
 11
-4.039008779823233
 21
4.361991416960669
 31
0.0
  0
LINE
  5
6D
330
49
100
AcDbEntity
  8
0
 62
   252
370
     0
100
AcDbLine
 10
-4.674949701569107
 20
7.809539193938461
 30
0.0
 11
-4.732762510822899
 21
8.122952618375077
 31
0.0
  0
LINE
  5
6E
330
49
100
AcDbEntity
  8
0
 62
   252
370
     0
100
AcDbLine
 10
-5.368703432568774
 20
11.57050039535287
 30
0.0
 11
-5.426516241822566
 21
11.88391381978949
 31
0.0
  0
LINE
  5
6F
330
49
100
AcDbEntity
  8
0
 62
   252
370
     0
100
AcDbLine
 10
0.2940353322503233
 20
-0.0000000000000001
 30
0.0
 11
0.241045590746208
 21
0.2872667244366173
 31
0.0
  0
LINE
  5
70
330
49
100
AcDbEntity
  8
0
 62
   252
370
     0
100
AcDbLine
 10
-0.3948953309996663
 20
3.734814501414411
 30
0.0
 11
-0.4527081402534586
 21
4.048227925851028
 31
0.0
  0
LINE
  5
71
330
49
100
AcDbEntity
  8
0
 62
   252
370
     0
100
AcDbLine
 10
-1.088649061999333
 20
7.49577570282882
 30
0.0
 11
-1.146461871253125
 21
7.809189127265437
 31
0.0
  0
LINE
  5
72
330
49
100
AcDbEntity
  8
0
 62
   252
370
     0
100
AcDbLine
 10
-1.782402792999
 20
11.25673690424323
 30
0.0
 11
-1.840215602252792
 21
11.57015032867985
 31
0.0
  0
LINE
  5
73
330
49
100
AcDbEntity
  8
0
 62
   252
370
     0
100
AcDbLine
 10
3.191405308570108
 20
3.421051010304768
 30
0.0
 11
3.133592499316315
 21
3.734464434741386
 31
0.0
  0
LINE
  5
74
330
49
100
AcDbEntity
  8
0
 62
   252
370
     0
100
AcDbLine
 10
2.497651577570442
 20
7.182012211719179
 30
0.0
 11
2.439838768316649
 21
7.495425636155796
 31
0.0
  0
LINE
  5
75
330
49
100
AcDbEntity
  8
0
 62
   252
370
     0
100
AcDbLine
 10
1.803897846570776
 20
10.94297341313359
 30
0.0
 11
1.746085037316983
 21
11.2563868375702
 31
0.0
  0
LINE
  5
76
330
49
100
AcDbEntity
  8
0
 62
   252
370
     0
100
AcDbLine
 10
6.777705948139883
 20
3.107287519195126
 30
0.0
 11
6.71989313888609
 21
3.420700943631743
 31
0.0
  0
LINE
  5
77
330
49
100
AcDbEntity
  8
0
 62
   252
370
     0
100
AcDbLine
 10
6.083952217140215
 20
6.868248720609536
 30
0.0
 11
6.026139407886423
 21
7.181662145046153
 31
0.0
  0
LINE
  5
78
330
49
100
AcDbEntity
  8
0
 62
   252
370
     0
100
AcDbLine
 10
5.390198486140548
 20
10.62920992202394
 30
0.0
 11
5.332385676886757
 21
10.94262334646056
 31
0.0
  0
LINE
  5
79
330
49
100
AcDbEntity
  8
0
 62
   252
370
     0
100
AcDbLine
 10
5.336205243128221
 20
0.1724049283549099
 30
0.0
 11
5.725647720284265
 21
0.578287678649333
 31
0.0
  0
LINE
  5
7A
330
49
100
AcDbEntity
  8
0
 62
   252
370
     0
100
AcDbLine
 10
-0.0000000000000004
 20
1.0
 30
0.0
 11
0.3894424771560425
 21
1.405882750294423
 31
0.0
  0
LINE
  5
7B
330
49
100
AcDbEntity
  8
0
 62
   252
370
     0
100
AcDbLine
 10
4.673309725872516
 20
5.870593003533076
 30
0.0
 11
5.062752203028559
 21
6.2764757538275
 31
0.0
  0
LINE
  5
7C
330
49
100
AcDbEntity
  8
0
 62
   252
370
     0
100
AcDbLine
 10
-5.336205243128222
 20
1.82759507164509
 30
0.0
 11
-4.94676276597218
 21
2.233477821939513
 31
0.0
  0
LINE
  5
7D
330
49
100
AcDbEntity
  8
0
 62
   252
370
     0
100
AcDbLine
 10
-0.6628955172557056
 20
6.698188075178168
 30
0.0
 11
-0.2734530400996631
 21
7.10407082547259
 31
0.0
  0
LINE
  5
7E
330
49
100
AcDbEntity
  8
0
 62
   252
370
     0
100
AcDbLine
 10
4.010414208616809
 20
11.56878107871124
 30
0.0
 11
4.399856685772852
 21
11.97466382900567
 31
0.0
  0
LINE
  5
7F
330
49
100
AcDbEntity
  8
0
 62
   252
370
     0
100
AcDbLine
 10
-5.999100760383929
 20
7.525783146823257
 30
0.0
 11
-5.609658283227886
 21
7.93166589711768
 31
0.0
  0
LINE
  5
80
330
49
100
AcDbEntity
  8
0
 62
   252
370
     0
100
AcDbLine
 10
-4.891520773663226
 20
1.758631869807885
 30
0.0
 11
-4.946761695995338
 21
2.233480919281475
 31
0.0
  0
LINE
  5
81
330
49
100
AcDbEntity
  8
0
 62
   252
370
     0
100
AcDbLine
 10
-5.554411744582934
 20
7.456819629117981
 30
0.0
 11
-5.609652666915048
 21
7.931668678591569
 31
0.0
  0
LINE
  5
82
330
49
100
AcDbEntity
  8
0
 62
   252
370
     0
100
AcDbLine
 10
0.4446837250000002
 20
0.9310334649999997
 30
0.0
 11
0.3894428026678868
 21
1.405882514473589
 31
0.0
  0
LINE
  5
83
330
49
100
AcDbEntity
  8
0
 62
   252
370
     0
100
AcDbLine
 10
-0.2182072459197085
 20
6.629221224310095
 30
0.0
 11
-0.2734481682518219
 21
7.104070273783684
 31
0.0
  0
LINE
  5
84
330
49
100
AcDbEntity
  8
0
 62
   252
370
     0
100
AcDbLine
 10
5.780888223663226
 20
0.1034350601921146
 30
0.0
 11
5.725647301331112
 21
0.5782841096657036
 31
0.0
  0
LINE
  5
85
330
49
100
AcDbEntity
  8
0
 62
   252
370
     0
100
AcDbLine
 10
5.117997252743516
 20
5.801622819502208
 30
0.0
 11
5.062756330411403
 21
6.276471868975797
 31
0.0
  0
LINE
  5
86
330
49
100
AcDbEntity
  8
0
 62
   252
370
     0
100
AcDbLine
 10
4.455106281823808
 20
11.4998105788123
 30
0.0
 11
4.399865359491693
 21
11.97465962828589
 31
0.0
  0
LINE
  5
87
330
49
100
AcDbEntity
  8
0
 62
   252
370
     0
100
AcDbLine
 10
5.33620524341954
 20
0.1724049298709921
 30
0.0
 11
5.780889013704502
 21
0.1034386740269082
 31
0.0
  0
LINE
  5
88
330
49
100
AcDbEntity
  8
0
 62
   252
370
     0
100
AcDbLine
 10
0.0000000000000022
 20
0.9999999999999997
 30
0.0
 11
0.4446837702849638
 21
0.9310337441559156
 31
0.0
  0
LINE
  5
89
330
49
100
AcDbEntity
  8
0
 62
   252
370
     0
100
AcDbLine
 10
-5.336205243419535
 20
1.827595070129007
 30
0.0
 11
-4.891521473134574
 21
1.758628814284923
 31
0.0
  0
LINE
  5
8A
330
49
100
AcDbEntity
  8
0
 62
   252
370
     0
100
AcDbLine
 10
4.673309725668136
 20
5.870593004626625
 30
0.0
 11
5.117993495953097
 21
5.801626748782541
 31
0.0
  0
LINE
  5
8B
330
49
100
AcDbEntity
  8
0
 62
   252
370
     0
100
AcDbLine
 10
-0.6628955177514002
 20
6.698188074755633
 30
0.0
 11
-0.2182117474664396
 21
6.629221818911548
 31
0.0
  0
LINE
  5
8C
330
49
100
AcDbEntity
  8
0
 62
   252
370
     0
100
AcDbLine
 10
-5.99910076117094
 20
7.525783144884639
 30
0.0
 11
-5.554416990885978
 21
7.456816889040556
 31
0.0
  0
LINE
  5
8D
330
49
100
AcDbEntity
  8
0
 62
   252
370
     0
100
AcDbLine
 10
4.010414207916733
 20
11.56878107938225
 30
0.0
 11
4.455097978201693
 21
11.49981482353817
 31
0.0
  0
LINE
  5
8E
330
49
100
AcDbEntity
  8
0
 62
   252
370
     0
100
AcDbLine
 10
7.685647179829717
 20
0.3495613196271584
 30
0.0
 11
7.999999999999998
 21
0.4702300616024857
 31
0.0
  0
LINE
  5
8F
330
49
100
AcDbEntity
  8
0
 62
   252
370
     0
100
AcDbLine
 10
0.4999999999999998
 20
0.7499999999999997
 30
0.0
 11
0.8500926599364504
 21
0.8843879810794874
 31
0.0
  0
LINE
  5
90
330
49
100
AcDbEntity
  8
0
 62
   252
370
     0
100
AcDbLine
 10
4.701111919237406
 20
2.36265577295385
 30
0.0
 11
5.051204579173858
 21
2.497043754033338
 31
0.0
  0
LINE
  5
91
330
49
100
AcDbEntity
  8
0
 62
   252
370
     0
100
AcDbLine
 10
-6.685647179829717
 20
1.150438680372842
 30
0.0
 11
-6.335554519893266
 21
1.28482666145233
 31
0.0
  0
LINE
  5
92
330
49
100
AcDbEntity
  8
0
 62
   252
370
     0
100
AcDbLine
 10
-2.484535260592308
 20
2.763094453326694
 30
0.0
 11
-2.134442600655857
 21
2.897482434406181
 31
0.0
  0
LINE
  5
93
330
49
100
AcDbEntity
  8
0
 62
   252
370
     0
100
AcDbLine
 10
1.716576658645099
 20
4.375750226280545
 30
0.0
 11
2.06666931858155
 21
4.510138207360033
 31
0.0
  0
LINE
  5
94
330
49
100
AcDbEntity
  8
0
 62
   252
370
     0
100
AcDbLine
 10
5.917688577882507
 20
5.988405999234395
 30
0.0
 11
6.267781237818959
 21
6.122793980313884
 31
0.0
  0
LINE
  5
95
330
49
100
AcDbEntity
  8
0
 62
   252
370
     0
100
AcDbLine
 10
-5.469070521184618
 20
4.776188906653387
 30
0.0
 11
-5.118977861248167
 21
4.910576887732875
 31
0.0
  0
LINE
  5
96
330
49
100
AcDbEntity
  8
0
 62
   252
370
     0
100
AcDbLine
 10
-1.267958601947208
 20
6.388844679607239
 30
0.0
 11
-0.9178659420107573
 21
6.523232660686727
 31
0.0
  0
LINE
  5
97
330
49
100
AcDbEntity
  8
0
 62
   252
370
     0
100
AcDbLine
 10
2.9331533172902
 20
8.001500452561089
 30
0.0
 11
3.283245977226652
 21
8.135888433640577
 31
0.0
  0
LINE
  5
98
330
49
100
AcDbEntity
  8
0
 62
   252
370
     0
100
AcDbLine
 10
7.134265236527611
 20
9.61415622551494
 30
0.0
 11
7.484357896464061
 21
9.748544206594428
 31
0.0
  0
LINE
  5
99
330
49
100
AcDbEntity
  8
0
 62
   252
370
     0
100
AcDbLine
 10
-4.252493862539517
 20
8.401939132933933
 30
0.0
 11
-3.902401202603067
 21
8.53632711401342
 31
0.0
  0
LINE
  5
9A
330
49
100
AcDbEntity
  8
0
 62
   252
370
     0
100
AcDbLine
 10
-0.0513819433021085
 20
10.01459490588779
 30
0.0
 11
0.2987107166343415
 21
10.14898288696727
 31
0.0
  0
LINE
  5
9B
330
49
100
AcDbEntity
  8
0
 62
   252
370
     0
100
AcDbLine
 10
4.149729975935299
 20
11.62725067884164
 30
0.0
 11
4.49982263587175
 21
11.76163865992112
 31
0.0
  0
LINE
  5
9C
330
49
100
AcDbEntity
  8
0
 62
   252
370
     0
100
AcDbLine
 10
-7.237029123131826
 20
10.41503358626063
 30
0.0
 11
-6.886936463195376
 21
10.54942156734012
 31
0.0
  0
LINE
  5
9D
330
49
100
AcDbEntity
  8
0
 62
   252
370
     0
100
AcDbLine
 10
-6.685647182004208
 20
1.150438679755115
 30
0.0
 11
-6.436935910237697
 21
0.9826808087138909
 31
0.0
  0
LINE
  5
9E
330
49
100
AcDbEntity
  8
0
 62
   252
370
     0
100
AcDbLine
 10
0.4999999999999993
 20
0.7500000000000001
 30
0.0
 11
0.7487112717665119
 21
0.5822421289587759
 31
0.0
  0
LINE
  5
9F
330
49
100
AcDbEntity
  8
0
 62
   252
370
     0
100
AcDbLine
 10
-2.484535261198149
 20
2.763094452494691
 30
0.0
 11
-2.235823989431637
 21
2.595336581453466
 31
0.0
  0
LINE
  5
A0
330
49
100
AcDbEntity
  8
0
 62
   252
370
     0
100
AcDbLine
 10
-5.469070522396298
 20
4.776188904989382
 30
0.0
 11
-5.220359250629786
 21
4.608431033948157
 31
0.0
  0
LINE
  5
A1
330
49
100
AcDbEntity
  8
0
 62
   252
370
     0
100
AcDbLine
 10
7.685647182004207
 20
0.3495613202448855
 30
0.0
 11
7.93435845377072
 21
0.1818034492036614
 31
0.0
  0
LINE
  5
A2
330
49
100
AcDbEntity
  8
0
 62
   252
370
     0
100
AcDbLine
 10
4.701111920806058
 20
2.362655772739575
 30
0.0
 11
4.949823192572572
 21
2.194897901698351
 31
0.0
  0
LINE
  5
A3
330
49
100
AcDbEntity
  8
0
 62
   252
370
     0
100
AcDbLine
 10
1.71657665960791
 20
4.375750225234264
 30
0.0
 11
1.965287931374422
 21
4.20799235419304
 31
0.0
  0
LINE
  5
A4
330
49
100
AcDbEntity
  8
0
 62
   252
370
     0
100
AcDbLine
 10
-1.267958601590238
 20
6.388844677728954
 30
0.0
 11
-1.019247329823727
 21
6.22108680668773
 31
0.0
  0
LINE
  5
A5
330
49
100
AcDbEntity
  8
0
 62
   252
370
     0
100
AcDbLine
 10
-4.252493862788388
 20
8.401939130223644
 30
0.0
 11
-4.003782591021874
 21
8.234181259182419
 31
0.0
  0
LINE
  5
A6
330
49
100
AcDbEntity
  8
0
 62
   252
370
     0
100
AcDbLine
 10
-7.237029123986536
 20
10.41503358271833
 30
0.0
 11
-6.988317852220023
 21
10.24727571167711
 31
0.0
  0
LINE
  5
A7
330
49
100
AcDbEntity
  8
0
 62
   252
370
     0
100
AcDbLine
 10
5.917688580413972
 20
5.988405997973836
 30
0.0
 11
6.166399852180485
 21
5.820648126932612
 31
0.0
  0
LINE
  5
A8
330
49
100
AcDbEntity
  8
0
 62
   252
370
     0
100
AcDbLine
 10
2.933153319215824
 20
8.001500450468527
 30
0.0
 11
3.181864590982335
 21
7.833742579427302
 31
0.0
  0
LINE
  5
A9
330
49
100
AcDbEntity
  8
0
 62
   252
370
     0
100
AcDbLine
 10
-0.051381941982326
 20
10.01459490296322
 30
0.0
 11
0.1973293297841865
 21
9.846837031921991
 31
0.0
  0
LINE
  5
AA
330
49
100
AcDbEntity
  8
0
 62
   252
370
     0
100
AcDbLine
 10
-2.994866045535307
 20
12.0
 30
0.0
 11
-2.787205931413961
 21
11.85993148441668
 31
0.0
  0
LINE
  5
AB
330
49
100
AcDbEntity
  8
0
 62
   252
370
     0
100
AcDbLine
 10
7.134265240021882
 20
9.614156223208104
 30
0.0
 11
7.382976511788395
 21
9.446398352166879
 31
0.0
  0
LINE
  5
AC
330
49
100
AcDbEntity
  8
0
 62
   252
370
     0
100
AcDbLine
 10
4.149729978823734
 20
11.6272506757028
 30
0.0
 11
4.398441250590245
 21
11.45949280466157
 31
0.0
  0
LINE
  5
AD
330
49
100
AcDbEntity
  8
0
 62
   252
370
     0
100
AcDbLine
 10
7.934357964029763
 20
0.1817976696853946
 30
0.0
 11
7.999999999999998
 21
0.3774294113150187
 31
0.0
  0
LINE
  5
AE
330
49
100
AcDbEntity
  8
0
 62
   252
370
     0
100
AcDbLine
 10
4.949824307907449
 20
2.194894453549761
 30
0.0
 11
5.051205928890212
 21
2.497040217143775
 31
0.0
  0
LINE
  5
AF
330
49
100
AcDbEntity
  8
0
 62
   252
370
     0
100
AcDbLine
 10
6.166403794692586
 20
5.820643720963889
 30
0.0
 11
6.267785415675348
 21
6.122789484557904
 31
0.0
  0
LINE
  5
B0
330
49
100
AcDbEntity
  8
0
 62
   252
370
     0
100
AcDbLine
 10
7.382983281477721
 20
9.446392988378019
 30
0.0
 11
7.484364902460484
 21
9.748538751972035
 31
0.0
  0
LINE
  5
B1
330
49
100
AcDbEntity
  8
0
 62
   252
370
     0
100
AcDbLine
 10
0.748711165
 20
0.5822419700000002
 30
0.0
 11
0.8500927859827627
 21
0.8843877335940143
 31
0.0
  0
LINE
  5
B2
330
49
100
AcDbEntity
  8
0
 62
   252
370
     0
100
AcDbLine
 10
1.965290651785136
 20
4.207991237414129
 30
0.0
 11
2.066672272767899
 21
4.510137001008144
 31
0.0
  0
LINE
  5
B3
330
49
100
AcDbEntity
  8
0
 62
   252
370
     0
100
AcDbLine
 10
3.181870138570273
 20
7.83374050482826
 30
0.0
 11
3.283251759553035
 21
8.135886268422274
 31
0.0
  0
LINE
  5
B4
330
49
100
AcDbEntity
  8
0
 62
   252
370
     0
100
AcDbLine
 10
4.398449625355409
 20
11.45948977224239
 30
0.0
 11
4.499831246338172
 21
11.7616355358364
 31
0.0
  0
LINE
  5
B5
330
49
100
AcDbEntity
  8
0
 62
   252
370
     0
100
AcDbLine
 10
-2.235822491122312
 20
2.595338753864367
 30
0.0
 11
-2.134440870139549
 21
2.897484517458381
 31
0.0
  0
LINE
  5
B6
330
49
100
AcDbEntity
  8
0
 62
   252
370
     0
100
AcDbLine
 10
-1.019243004337176
 20
6.221088021278495
 30
0.0
 11
-0.9178613833544131
 21
6.523233784872509
 31
0.0
  0
LINE
  5
B7
330
49
100
AcDbEntity
  8
0
 62
   252
370
     0
100
AcDbLine
 10
0.19733648244796
 20
9.846837288692624
 30
0.0
 11
0.298718103430723
 21
10.14898305228664
 31
0.0
  0
LINE
  5
B8
330
49
100
AcDbEntity
  8
0
 62
   252
370
     0
100
AcDbLine
 10
-6.436935634029764
 20
0.9826862703146055
 30
0.0
 11
-6.335554013047001
 21
1.28483203390862
 31
0.0
  0
LINE
  5
B9
330
49
100
AcDbEntity
  8
0
 62
   252
370
     0
100
AcDbLine
 10
-5.220356147244627
 20
4.608435537728734
 30
0.0
 11
-5.118974526261864
 21
4.91058130132275
 31
0.0
  0
LINE
  5
BA
330
49
100
AcDbEntity
  8
0
 62
   252
370
     0
100
AcDbLine
 10
-4.003776660459492
 20
8.234184805142863
 30
0.0
 11
-3.902395039476728
 21
8.536330568736878
 31
0.0
  0
LINE
  5
BB
330
49
100
AcDbEntity
  8
0
 62
   252
370
     0
100
AcDbLine
 10
-2.787197173674355
 20
11.85993407255699
 30
0.0
 11
-2.7401996232215
 21
12.0
 31
0.0
  0
LINE
  5
BC
330
49
100
AcDbEntity
  8
0
 62
   252
370
     0
100
AcDbLine
 10
-6.988310316581804
 20
10.24728158900723
 30
0.0
 11
-6.886928695599041
 21
10.54942735260125
 31
0.0
  0
LINE
  5
BD
330
49
100
AcDbEntity
  8
0
 62
   252
370
     0
100
AcDbLine
 10
7.689650689280422
 20
1.047027471869357
 30
0.0
 11
7.689650689280422
 21
1.047027471869357
 31
0.0
  0
LINE
  5
BE
330
49
100
AcDbEntity
  8
0
 62
   252
370
     0
100
AcDbLine
 10
7.842712527850138
 20
1.164475951433579
 30
0.0
 11
7.842712527850138
 21
1.164475951433579
 31
0.0
  0
LINE
  5
BF
330
49
100
AcDbEntity
  8
0
 62
   252
370
     0
100
AcDbLine
 10
7.999999999999998
 20
1.285166873685156
 30
0.0
 11
7.999999999999998
 21
1.285166873685156
 31
0.0
  0
LINE
  5
C0
330
49
100
AcDbEntity
  8
0
 62
   252
370
     0
100
AcDbLine
 10
4.216758614585661
 20
-0.0000000000000009
 30
0.0
 11
4.216758614585661
 21
-0.0000000000000009
 31
0.0
  0
LINE
  5
C1
330
49
100
AcDbEntity
  8
0
 62
   252
370
     0
100
AcDbLine
 10
4.663446878081391
 20
0.3427559597937301
 30
0.0
 11
4.663446878081391
 21
0.3427559597937301
 31
0.0
  0
LINE
  5
C2
330
49
100
AcDbEntity
  8
0
 62
   252
370
     0
100
AcDbLine
 10
5.122467026152157
 20
0.6949745074345274
 30
0.0
 11
5.122467026152157
 21
0.6949745074345274
 31
0.0
  0
LINE
  5
C3
330
49
100
AcDbEntity
  8
0
 62
   252
370
     0
100
AcDbLine
 10
7.750449965866874
 20
2.711496741025914
 30
0.0
 11
7.750449965866874
 21
2.711496741025914
 31
0.0
  0
LINE
  5
C4
330
49
100
AcDbEntity
  8
0
 62
   252
370
     0
100
AcDbLine
 10
7.873526079524058
 20
2.805936364610637
 30
0.0
 11
7.873526079524058
 21
2.805936364610637
 31
0.0
  0
LINE
  5
C5
330
49
100
AcDbEntity
  8
0
 62
   252
370
     0
100
AcDbLine
 10
7.999999999999998
 20
2.90298321706733
 30
0.0
 11
7.999999999999998
 21
2.90298321706733
 31
0.0
  0
LINE
  5
C6
330
49
100
AcDbEntity
  8
0
 62
   252
370
     0
100
AcDbLine
 10
2.108379307292831
 20
-0.0000000000000005
 30
0.0
 11
2.108379307292831
 21
-0.0000000000000005
 31
0.0
  0
LINE
  5
C7
330
49
100
AcDbEntity
  8
0
 62
   252
370
     0
100
AcDbLine
 10
3.624889383715408
 20
1.163659109181079
 30
0.0
 11
3.624889383715408
 21
1.163659109181079
 31
0.0
  0
LINE
  5
C8
330
49
100
AcDbEntity
  8
0
 62
   252
370
     0
100
AcDbLine
 10
5.18326630273861
 20
2.359443776591084
 30
0.0
 11
5.18326630273861
 21
2.359443776591084
 31
0.0
  0
LINE
  5
C9
330
49
100
AcDbEntity
  8
0
 62
   252
370
     0
100
AcDbLine
 10
7.811249242453327
 20
4.375966010182471
 30
0.0
 11
7.811249242453327
 21
4.375966010182471
 31
0.0
  0
LINE
  5
CA
330
49
100
AcDbEntity
  8
0
 62
   252
370
     0
100
AcDbLine
 10
7.904339631197979
 20
4.447396777787695
 30
0.0
 11
7.904339631197979
 21
4.447396777787695
 31
0.0
  0
LINE
  5
CB
330
49
100
AcDbEntity
  8
0
 62
   252
370
     0
100
AcDbLine
 10
7.999999999999999
 20
4.520799560449506
 30
0.0
 11
7.999999999999999
 21
4.520799560449506
 31
0.0
  0
LINE
  5
CC
330
49
100
AcDbEntity
  8
0
 62
   252
370
     0
100
AcDbLine
 10
0.0
 20
0.0
 30
0.0
 11
0.0
 21
0.0
 31
0.0
  0
LINE
  5
CD
330
49
100
AcDbEntity
  8
0
 62
   252
370
     0
100
AcDbLine
 10
2.586331889349426
 20
1.984562258568429
 30
0.0
 11
2.586331889349426
 21
1.984562258568429
 31
0.0
  0
LINE
  5
CE
330
49
100
AcDbEntity
  8
0
 62
   252
370
     0
100
AcDbLine
 10
5.244065579325063
 20
4.023913045747642
 30
0.0
 11
5.244065579325063
 21
4.023913045747642
 31
0.0
  0
LINE
  5
CF
330
49
100
AcDbEntity
  8
0
 62
   252
370
     0
100
AcDbLine
 10
7.87204851903978
 20
6.04043527933903
 30
0.0
 11
7.87204851903978
 21
6.04043527933903
 31
0.0
  0
LINE
  5
D0
330
49
100
AcDbEntity
  8
0
 62
   252
370
     0
100
AcDbLine
 10
7.9351531828719
 20
6.088857190964755
 30
0.0
 11
7.9351531828719
 21
6.088857190964755
 31
0.0
  0
LINE
  5
D1
330
49
100
AcDbEntity
  8
0
 62
   252
370
     0
100
AcDbLine
 10
7.999999999999999
 20
6.138615903831681
 30
0.0
 11
7.999999999999999
 21
6.138615903831681
 31
0.0
  0
LINE
  5
D2
330
49
100
AcDbEntity
  8
0
 62
   252
370
     0
100
AcDbLine
 10
0.0607992765864531
 20
1.664469269156557
 30
0.0
 11
0.0607992765864531
 21
1.664469269156557
 31
0.0
  0
LINE
  5
D3
330
49
100
AcDbEntity
  8
0
 62
   252
370
     0
100
AcDbLine
 10
2.647131165935879
 20
3.649031527724986
 30
0.0
 11
2.647131165935879
 21
3.649031527724986
 31
0.0
  0
LINE
  5
D4
330
49
100
AcDbEntity
  8
0
 62
   252
370
     0
100
AcDbLine
 10
5.304864855911516
 20
5.6883823149042
 30
0.0
 11
5.304864855911516
 21
5.6883823149042
 31
0.0
  0
LINE
  5
D5
330
49
100
AcDbEntity
  8
0
 62
   252
370
     0
100
AcDbLine
 10
7.932847795626233
 20
7.704904548495588
 30
0.0
 11
7.932847795626233
 21
7.704904548495588
 31
0.0
  0
LINE
  5
D6
330
49
100
AcDbEntity
  8
0
 62
   252
370
     0
100
AcDbLine
 10
7.965966734545821
 20
7.730317604141814
 30
0.0
 11
7.965966734545821
 21
7.730317604141814
 31
0.0
  0
LINE
  5
D7
330
49
100
AcDbEntity
  8
0
 62
   252
370
     0
100
AcDbLine
 10
7.999999999999999
 20
7.756432247213858
 30
0.0
 11
7.999999999999999
 21
7.756432247213858
 31
0.0
  0
LINE
  5
D8
330
49
100
AcDbEntity
  8
0
 62
   252
370
     0
100
AcDbLine
 10
-4.216758614585659
 20
0.0000000000000009
 30
0.0
 11
-4.216758614585659
 21
0.0000000000000009
 31
0.0
  0
LINE
  5
D9
330
49
100
AcDbEntity
  8
0
 62
   252
370
     0
100
AcDbLine
 10
-3.373215500603367
 20
0.6472733968824258
 30
0.0
 11
-3.373215500603367
 21
0.6472733968824258
 31
0.0
  0
LINE
  5
DA
330
49
100
AcDbEntity
  8
0
 62
   252
370
     0
100
AcDbLine
 10
-2.50638438654181
 20
1.312416304721727
 30
0.0
 11
-2.50638438654181
 21
1.312416304721727
 31
0.0
  0
LINE
  5
DB
330
49
100
AcDbEntity
  8
0
 62
   252
370
     0
100
AcDbLine
 10
0.1215985531729071
 20
3.328938538313115
 30
0.0
 11
0.1215985531729071
 21
3.328938538313115
 31
0.0
  0
LINE
  5
DC
330
49
100
AcDbEntity
  8
0
 62
   252
370
     0
100
AcDbLine
 10
2.707930442522334
 20
5.313500796881544
 30
0.0
 11
2.707930442522334
 21
5.313500796881544
 31
0.0
  0
LINE
  5
DD
330
49
100
AcDbEntity
  8
0
 62
   252
370
     0
100
AcDbLine
 10
5.365664132497971
 20
7.352851584060758
 30
0.0
 11
5.365664132497971
 21
7.352851584060758
 31
0.0
  0
LINE
  5
DE
330
49
100
AcDbEntity
  8
0
 62
   252
370
     0
100
AcDbLine
 10
7.993647072212688
 20
9.369373817652146
 30
0.0
 11
7.993647072212688
 21
9.369373817652146
 31
0.0
  0
LINE
  5
DF
330
49
100
AcDbEntity
  8
0
 62
   252
370
     0
100
AcDbLine
 10
7.996780286219744
 20
9.371778017318874
 30
0.0
 11
7.996780286219744
 21
9.371778017318874
 31
0.0
  0
LINE
  5
E0
330
49
100
AcDbEntity
  8
0
 62
   252
370
     0
100
AcDbLine
 10
8.0
 20
9.374248590596032
 30
0.0
 11
8.0
 21
9.374248590596032
 31
0.0
  0
LINE
  5
E1
330
49
100
AcDbEntity
  8
0
 62
   252
370
     0
100
AcDbLine
 10
-6.325137921878492
 20
0.0000000000000014
 30
0.0
 11
-6.325137921878492
 21
0.0000000000000014
 31
0.0
  0
LINE
  5
E2
330
49
100
AcDbEntity
  8
0
 62
   252
370
     0
100
AcDbLine
 10
-4.411772994969351
 20
1.468176546269776
 30
0.0
 11
-4.411772994969351
 21
1.468176546269776
 31
0.0
  0
LINE
  5
E3
330
49
100
AcDbEntity
  8
0
 62
   252
370
     0
100
AcDbLine
 10
-2.445585109955358
 20
2.976885573878286
 30
0.0
 11
-2.445585109955358
 21
2.976885573878286
 31
0.0
  0
LINE
  5
E4
330
49
100
AcDbEntity
  8
0
 62
   252
370
     0
100
AcDbLine
 10
0.1823978297593594
 20
4.993407807469673
 30
0.0
 11
0.1823978297593594
 21
4.993407807469673
 31
0.0
  0
LINE
  5
E5
330
49
100
AcDbEntity
  8
0
 62
   252
370
     0
100
AcDbLine
 10
2.768729719108785
 20
6.977970066038102
 30
0.0
 11
2.768729719108785
 21
6.977970066038102
 31
0.0
  0
LINE
  5
E6
330
49
100
AcDbEntity
  8
0
 62
   252
370
     0
100
AcDbLine
 10
5.426463409084423
 20
9.017320853217315
 30
0.0
 11
5.426463409084423
 21
9.017320853217315
 31
0.0
  0
LINE
  5
E7
330
49
100
AcDbEntity
  8
0
 62
   252
370
     0
100
AcDbLine
 10
-7.628851412693968
 20
0.6174417972871997
 30
0.0
 11
-7.628851412693968
 21
0.6174417972871997
 31
0.0
  0
LINE
  5
E8
330
49
100
AcDbEntity
  8
0
 62
   252
370
     0
100
AcDbLine
 10
-5.042519523344541
 20
2.602004055855629
 30
0.0
 11
-5.042519523344541
 21
2.602004055855629
 31
0.0
  0
LINE
  5
E9
330
49
100
AcDbEntity
  8
0
 62
   252
370
     0
100
AcDbLine
 10
-2.384785833368904
 20
4.641354843034842
 30
0.0
 11
-2.384785833368904
 21
4.641354843034842
 31
0.0
  0
LINE
  5
EA
330
49
100
AcDbEntity
  8
0
 62
   252
370
     0
100
AcDbLine
 10
0.2431971063458107
 20
6.65787707662623
 30
0.0
 11
0.2431971063458107
 21
6.65787707662623
 31
0.0
  0
LINE
  5
EB
330
49
100
AcDbEntity
  8
0
 62
   252
370
     0
100
AcDbLine
 10
2.829528995695236
 20
8.64243933519466
 30
0.0
 11
2.829528995695236
 21
8.64243933519466
 31
0.0
  0
LINE
  5
EC
330
49
100
AcDbEntity
  8
0
 62
   252
370
     0
100
AcDbLine
 10
5.487262685670873
 20
10.68179012237387
 30
0.0
 11
5.487262685670873
 21
10.68179012237387
 31
0.0
  0
LINE
  5
ED
330
49
100
AcDbEntity
  8
0
 62
   252
370
     0
100
AcDbLine
 10
-7.568052136107513
 20
2.281911066443757
 30
0.0
 11
-7.568052136107513
 21
2.281911066443757
 31
0.0
  0
LINE
  5
EE
330
49
100
AcDbEntity
  8
0
 62
   252
370
     0
100
AcDbLine
 10
-4.981720246758087
 20
4.266473325012186
 30
0.0
 11
-4.981720246758087
 21
4.266473325012186
 31
0.0
  0
LINE
  5
EF
330
49
100
AcDbEntity
  8
0
 62
   252
370
     0
100
AcDbLine
 10
-2.323986556782449
 20
6.305824112191399
 30
0.0
 11
-2.323986556782449
 21
6.305824112191399
 31
0.0
  0
LINE
  5
F0
330
49
100
AcDbEntity
  8
0
 62
   252
370
     0
100
AcDbLine
 10
0.3039963829322674
 20
8.322346345782787
 30
0.0
 11
0.3039963829322674
 21
8.322346345782787
 31
0.0
  0
LINE
  5
F1
330
49
100
AcDbEntity
  8
0
 62
   252
370
     0
100
AcDbLine
 10
2.667773337291667
 20
10.13613619642547
 30
0.0
 11
2.667773337291667
 21
10.13613619642547
 31
0.0
  0
LINE
  5
F2
330
49
100
AcDbEntity
  8
0
 62
   252
370
     0
100
AcDbLine
 10
5.096807937630315
 20
12.0
 30
0.0
 11
5.096807937630315
 21
12.0
 31
0.0
  0
LINE
  5
F3
330
49
100
AcDbEntity
  8
0
 62
   252
370
     0
100
AcDbLine
 10
-7.507252859521062
 20
3.946380335600315
 30
0.0
 11
-7.507252859521062
 21
3.946380335600315
 31
0.0
  0
LINE
  5
F4
330
49
100
AcDbEntity
  8
0
 62
   252
370
     0
100
AcDbLine
 10
-4.920920970171634
 20
5.930942594168744
 30
0.0
 11
-4.920920970171634
 21
5.930942594168744
 31
0.0
  0
LINE
  5
F5
330
49
100
AcDbEntity
  8
0
 62
   252
370
     0
100
AcDbLine
 10
-2.263187280195996
 20
7.970293381347959
 30
0.0
 11
-2.263187280195996
 21
7.970293381347959
 31
0.0
  0
LINE
  5
F6
330
49
100
AcDbEntity
  8
0
 62
   252
370
     0
100
AcDbLine
 10
0.3647956595187196
 20
9.986815614939347
 30
0.0
 11
0.3647956595187196
 21
9.986815614939347
 31
0.0
  0
LINE
  5
F7
330
49
100
AcDbEntity
  8
0
 62
   252
370
     0
100
AcDbLine
 10
1.658750800951271
 20
10.97970231619468
 30
0.0
 11
1.658750800951271
 21
10.97970231619468
 31
0.0
  0
LINE
  5
F8
330
49
100
AcDbEntity
  8
0
 62
   252
370
     0
100
AcDbLine
 10
2.988428630337483
 20
12.0
 30
0.0
 11
2.988428630337483
 21
12.0
 31
0.0
  0
LINE
  5
F9
330
49
100
AcDbEntity
  8
0
 62
   252
370
     0
100
AcDbLine
 10
-7.446453582934609
 20
5.610849604756872
 30
0.0
 11
-7.446453582934609
 21
5.610849604756872
 31
0.0
  0
LINE
  5
FA
330
49
100
AcDbEntity
  8
0
 62
   252
370
     0
100
AcDbLine
 10
-4.860121693585183
 20
7.595411863325301
 30
0.0
 11
-4.860121693585183
 21
7.595411863325301
 31
0.0
  0
LINE
  5
FB
330
49
100
AcDbEntity
  8
0
 62
   252
370
     0
100
AcDbLine
 10
-2.202388003609545
 20
9.634762650504515
 30
0.0
 11
-2.202388003609545
 21
9.634762650504515
 31
0.0
  0
LINE
  5
FC
330
49
100
AcDbEntity
  8
0
 62
   252
370
     0
100
AcDbLine
 10
0.4255949361051713
 20
11.6512848840959
 30
0.0
 11
0.4255949361051713
 21
11.6512848840959
 31
0.0
  0
LINE
  5
FD
330
49
100
AcDbEntity
  8
0
 62
   252
370
     0
100
AcDbLine
 10
0.6497282646108767
 20
11.82326843596388
 30
0.0
 11
0.6497282646108767
 21
11.82326843596388
 31
0.0
  0
LINE
  5
FE
330
49
100
AcDbEntity
  8
0
 62
   252
370
     0
100
AcDbLine
 10
0.8800493230446538
 20
12.0
 30
0.0
 11
0.8800493230446538
 21
12.0
 31
0.0
  0
LINE
  5
FF
330
49
100
AcDbEntity
  8
0
 62
   252
370
     0
100
AcDbLine
 10
-7.385654306348155
 20
7.275318873913428
 30
0.0
 11
-7.385654306348155
 21
7.275318873913428
 31
0.0
  0
LINE
  5
100
330
49
100
AcDbEntity
  8
0
 62
   252
370
     0
100
AcDbLine
 10
-4.799322416998729
 20
9.259881132481858
 30
0.0
 11
-4.799322416998729
 21
9.259881132481858
 31
0.0
  0
LINE
  5
101
330
49
100
AcDbEntity
  8
0
 62
   252
370
     0
100
AcDbLine
 10
-2.141588727023092
 20
11.29923191966107
 30
0.0
 11
-2.141588727023092
 21
11.29923191966107
 31
0.0
  0
LINE
  5
102
330
49
100
AcDbEntity
  8
0
 62
   252
370
     0
100
AcDbLine
 10
-7.324855029761702
 20
8.939788143069986
 30
0.0
 11
-7.324855029761702
 21
8.939788143069986
 31
0.0
  0
LINE
  5
103
330
49
100
AcDbEntity
  8
0
 62
   252
370
     0
100
AcDbLine
 10
-5.357932925888861
 20
10.44906055662397
 30
0.0
 11
-5.357932925888861
 21
10.44906055662397
 31
0.0
  0
LINE
  5
104
330
49
100
AcDbEntity
  8
0
 62
   252
370
     0
100
AcDbLine
 10
-3.336709291541005
 20
12.0
 30
0.0
 11
-3.336709291541005
 21
12.0
 31
0.0
  0
LINE
  5
105
330
49
100
AcDbEntity
  8
0
 62
   252
370
     0
100
AcDbLine
 10
-7.264055753175248
 20
10.60425741222654
 30
0.0
 11
-7.264055753175248
 21
10.60425741222654
 31
0.0
  0
LINE
  5
106
330
49
100
AcDbEntity
  8
0
 62
   252
370
     0
100
AcDbLine
 10
-6.366955462229257
 20
11.29262667639318
 30
0.0
 11
-6.366955462229257
 21
11.29262667639318
 31
0.0
  0
LINE
  5
107
330
49
100
AcDbEntity
  8
0
 62
   252
370
     0
100
AcDbLine
 10
-5.445088598833836
 20
12.0
 30
0.0
 11
-5.445088598833836
 21
12.0
 31
0.0
  0
LINE
  5
108
330
49
100
AcDbEntity
  8
0
 62
   252
370
     0
100
AcDbLine
 10
0.0
 20
0.0
 30
0.0
 11
0.0
 21
0.0
 31
0.0
  0
LINE
  5
109
330
49
100
AcDbEntity
  8
0
 62
   252
370
     0
100
AcDbLine
 10
1.893659685223978
 20
0.2493050271402986
 30
0.0
 11
1.893659685223978
 21
0.2493050271402986
 31
0.0
  0
LINE
  5
10A
330
49
100
AcDbEntity
  8
0
 62
   252
370
     0
100
AcDbLine
 10
5.051411568699565
 20
0.6650309493611629
 30
0.0
 11
5.051411568699565
 21
0.6650309493611629
 31
0.0
  0
LINE
  5
10B
330
49
100
AcDbEntity
  8
0
 62
   252
370
     0
100
AcDbLine
 10
6.303110706183999
 20
0.829820267038978
 30
0.0
 11
6.303110706183999
 21
0.829820267038978
 31
0.0
  0
LINE
  5
10C
330
49
100
AcDbEntity
  8
0
 62
   252
370
     0
100
AcDbLine
 10
6.939236035170959
 20
0.9135677553787152
 30
0.0
 11
6.939236035170959
 21
0.9135677553787152
 31
0.0
  0
LINE
  5
10D
330
49
100
AcDbEntity
  8
0
 62
   252
370
     0
100
AcDbLine
 10
7.999999999999998
 20
1.053219980699167
 30
0.0
 11
7.999999999999998
 21
1.053219980699167
 31
0.0
  0
LINE
  5
10E
330
49
100
AcDbEntity
  8
0
 62
   252
370
     0
100
AcDbLine
 10
-8.000000000000002
 20
0.7456697704955355
 30
0.0
 11
-8.000000000000002
 21
0.7456697704955355
 31
0.0
  0
LINE
  5
10F
330
49
100
AcDbEntity
  8
0
 62
   252
370
     0
100
AcDbLine
 10
-7.340014272587674
 20
0.8325585398814026
 30
0.0
 11
-7.340014272587674
 21
0.8325585398814026
 31
0.0
  0
LINE
  5
110
330
49
100
AcDbEntity
  8
0
 62
   252
370
     0
100
AcDbLine
 10
-6.239462156457693
 20
0.9774489746950084
 30
0.0
 11
-6.239462156457693
 21
0.9774489746950084
 31
0.0
  0
LINE
  5
111
330
49
100
AcDbEntity
  8
0
 62
   252
370
     0
100
AcDbLine
 10
-4.987763018973258
 20
1.142238292372824
 30
0.0
 11
-4.987763018973258
 21
1.142238292372824
 31
0.0
  0
LINE
  5
112
330
49
100
AcDbEntity
  8
0
 62
   252
370
     0
100
AcDbLine
 10
-3.09410333374928
 20
1.391543319513122
 30
0.0
 11
-3.09410333374928
 21
1.391543319513122
 31
0.0
  0
LINE
  5
113
330
49
100
AcDbEntity
  8
0
 62
   252
370
     0
100
AcDbLine
 10
0.063648549726306
 20
1.807269241733986
 30
0.0
 11
0.063648549726306
 21
1.807269241733986
 31
0.0
  0
LINE
  5
114
330
49
100
AcDbEntity
  8
0
 62
   252
370
     0
100
AcDbLine
 10
1.315347687210741
 20
1.972058559411801
 30
0.0
 11
1.315347687210741
 21
1.972058559411801
 31
0.0
  0
LINE
  5
115
330
49
100
AcDbEntity
  8
0
 62
   252
370
     0
100
AcDbLine
 10
3.209007372434719
 20
2.2213635865521
 30
0.0
 11
3.209007372434719
 21
2.2213635865521
 31
0.0
  0
LINE
  5
116
330
49
100
AcDbEntity
  8
0
 62
   252
370
     0
100
AcDbLine
 10
6.366759255910306
 20
2.637089508772964
 30
0.0
 11
6.366759255910306
 21
2.637089508772964
 31
0.0
  0
LINE
  5
117
330
49
100
AcDbEntity
  8
0
 62
   252
370
     0
100
AcDbLine
 10
7.618458393394741
 20
2.801878826450779
 30
0.0
 11
7.618458393394741
 21
2.801878826450779
 31
0.0
  0
LINE
  5
118
330
49
100
AcDbEntity
  8
0
 62
   252
370
     0
100
AcDbLine
 10
7.761489692436163
 20
2.820709254202752
 30
0.0
 11
7.761489692436163
 21
2.820709254202752
 31
0.0
  0
LINE
  5
119
330
49
100
AcDbEntity
  8
0
 62
   252
370
     0
100
AcDbLine
 10
7.999999999999998
 20
2.852109731893869
 30
0.0
 11
7.999999999999998
 21
2.852109731893869
 31
0.0
  0
LINE
  5
11A
330
49
100
AcDbEntity
  8
0
 62
   252
370
     0
100
AcDbLine
 10
-8.000000000000002
 20
2.544559521690238
 30
0.0
 11
-8.000000000000002
 21
2.544559521690238
 31
0.0
  0
LINE
  5
11B
330
49
100
AcDbEntity
  8
0
 62
   252
370
     0
100
AcDbLine
 10
-6.846920242642135
 20
2.696365351663869
 30
0.0
 11
-6.846920242642135
 21
2.696365351663869
 31
0.0
  0
LINE
  5
11C
330
49
100
AcDbEntity
  8
0
 62
   252
370
     0
100
AcDbLine
 10
-4.924114469246948
 20
2.94950753410681
 30
0.0
 11
-4.924114469246948
 21
2.94950753410681
 31
0.0
  0
LINE
  5
11D
330
49
100
AcDbEntity
  8
0
 62
   252
370
     0
100
AcDbLine
 10
-3.672415331762513
 20
3.114296851784625
 30
0.0
 11
-3.672415331762513
 21
3.114296851784625
 31
0.0
  0
LINE
  5
11E
330
49
100
AcDbEntity
  8
0
 62
   252
370
     0
100
AcDbLine
 10
-1.778755646538534
 20
3.363601878924924
 30
0.0
 11
-1.778755646538534
 21
3.363601878924924
 31
0.0
  0
LINE
  5
11F
330
49
100
AcDbEntity
  8
0
 62
   252
370
     0
100
AcDbLine
 10
1.378996236937052
 20
3.779327801145789
 30
0.0
 11
1.378996236937052
 21
3.779327801145789
 31
0.0
  0
LINE
  5
120
330
49
100
AcDbEntity
  8
0
 62
   252
370
     0
100
AcDbLine
 10
2.630695374421489
 20
3.944117118823604
 30
0.0
 11
2.630695374421489
 21
3.944117118823604
 31
0.0
  0
LINE
  5
121
330
49
100
AcDbEntity
  8
0
 62
   252
370
     0
100
AcDbLine
 10
4.524355059645467
 20
4.193422145963902
 30
0.0
 11
4.524355059645467
 21
4.193422145963902
 31
0.0
  0
LINE
  5
122
330
49
100
AcDbEntity
  8
0
 62
   252
370
     0
100
AcDbLine
 10
7.682106943121052
 20
4.609148068184767
 30
0.0
 11
7.682106943121052
 21
4.609148068184767
 31
0.0
  0
LINE
  5
123
330
49
100
AcDbEntity
  8
0
 62
   252
370
     0
100
AcDbLine
 10
-8.000000000000002
 20
4.343449272884941
 30
0.0
 11
-8.000000000000002
 21
4.343449272884941
 31
0.0
  0
LINE
  5
124
330
49
100
AcDbEntity
  8
0
 62
   252
370
     0
100
AcDbLine
 10
-6.353826212696597
 20
4.560172163446337
 30
0.0
 11
-6.353826212696597
 21
4.560172163446337
 31
0.0
  0
LINE
  5
125
330
49
100
AcDbEntity
  8
0
 62
   252
370
     0
100
AcDbLine
 10
-3.608766782036207
 20
4.921566093518612
 30
0.0
 11
-3.608766782036207
 21
4.921566093518612
 31
0.0
  0
LINE
  5
126
330
49
100
AcDbEntity
  8
0
 62
   252
370
     0
100
AcDbLine
 10
-2.35706764455177
 20
5.086355411196427
 30
0.0
 11
-2.35706764455177
 21
5.086355411196427
 31
0.0
  0
LINE
  5
127
330
49
100
AcDbEntity
  8
0
 62
   252
370
     0
100
AcDbLine
 10
-0.4634079593277927
 20
5.335660438336726
 30
0.0
 11
-0.4634079593277927
 21
5.335660438336726
 31
0.0
  0
LINE
  5
128
330
49
100
AcDbEntity
  8
0
 62
   252
370
     0
100
AcDbLine
 10
2.694343924147793
 20
5.751386360557589
 30
0.0
 11
2.694343924147793
 21
5.751386360557589
 31
0.0
  0
LINE
  5
129
330
49
100
AcDbEntity
  8
0
 62
   252
370
     0
100
AcDbLine
 10
3.946043061632228
 20
5.916175678235405
 30
0.0
 11
3.946043061632228
 21
5.916175678235405
 31
0.0
  0
LINE
  5
12A
330
49
100
AcDbEntity
  8
0
 62
   252
370
     0
100
AcDbLine
 10
5.465779617526721
 20
6.116252791493781
 30
0.0
 11
5.465779617526721
 21
6.116252791493781
 31
0.0
  0
LINE
  5
12B
330
49
100
AcDbEntity
  8
0
 62
   252
370
     0
100
AcDbLine
 10
7.999999999999998
 20
6.449889234283273
 30
0.0
 11
7.999999999999998
 21
6.449889234283273
 31
0.0
  0
LINE
  5
12C
330
49
100
AcDbEntity
  8
0
 62
   252
370
     0
100
AcDbLine
 10
-7.344830663525027
 20
6.22859370356925
 30
0.0
 11
-7.344830663525027
 21
6.22859370356925
 31
0.0
  0
LINE
  5
12D
330
49
100
AcDbEntity
  8
0
 62
   252
370
     0
100
AcDbLine
 10
-5.451170978301049
 20
6.477898730709549
 30
0.0
 11
-5.451170978301049
 21
6.477898730709549
 31
0.0
  0
LINE
  5
12E
330
49
100
AcDbEntity
  8
0
 62
   252
370
     0
100
AcDbLine
 10
-2.293419094825463
 20
6.893624652930413
 30
0.0
 11
-2.293419094825463
 21
6.893624652930413
 31
0.0
  0
LINE
  5
12F
330
49
100
AcDbEntity
  8
0
 62
   252
370
     0
100
AcDbLine
 10
-1.041719957341027
 20
7.058413970608228
 30
0.0
 11
-1.041719957341027
 21
7.058413970608228
 31
0.0
  0
LINE
  5
130
330
49
100
AcDbEntity
  8
0
 62
   252
370
     0
100
AcDbLine
 10
0.8519397278829508
 20
7.307718997748527
 30
0.0
 11
0.8519397278829508
 21
7.307718997748527
 31
0.0
  0
LINE
  5
131
330
49
100
AcDbEntity
  8
0
 62
   252
370
     0
100
AcDbLine
 10
4.009691611358537
 20
7.72344491996939
 30
0.0
 11
4.009691611358537
 21
7.72344491996939
 31
0.0
  0
LINE
  5
132
330
49
100
AcDbEntity
  8
0
 62
   252
370
     0
100
AcDbLine
 10
5.261390748842973
 20
7.888234237647207
 30
0.0
 11
5.261390748842973
 21
7.888234237647207
 31
0.0
  0
LINE
  5
133
330
49
100
AcDbEntity
  8
0
 62
   252
370
     0
100
AcDbLine
 10
6.288033274791927
 20
8.02339429031782
 30
0.0
 11
6.288033274791927
 21
8.02339429031782
 31
0.0
  0
LINE
  5
134
330
49
100
AcDbEntity
  8
0
 62
   252
370
     0
100
AcDbLine
 10
7.999999999999999
 20
8.248778985477976
 30
0.0
 11
7.999999999999999
 21
8.248778985477976
 31
0.0
  0
LINE
  5
135
330
49
100
AcDbEntity
  8
0
 62
   252
370
     0
100
AcDbLine
 10
-8.0
 20
7.941228775274345
 30
0.0
 11
-8.0
 21
7.941228775274345
 31
0.0
  0
LINE
  5
136
330
49
100
AcDbEntity
  8
0
 62
   252
370
     0
100
AcDbLine
 10
-7.730531469549667
 20
7.976704980329337
 30
0.0
 11
-7.730531469549667
 21
7.976704980329337
 31
0.0
  0
LINE
  5
137
330
49
100
AcDbEntity
  8
0
 62
   252
370
     0
100
AcDbLine
 10
-7.281182113798717
 20
8.035862945303236
 30
0.0
 11
-7.281182113798717
 21
8.035862945303236
 31
0.0
  0
LINE
  5
138
330
49
100
AcDbEntity
  8
0
 62
   252
370
     0
100
AcDbLine
 10
-6.029482976314281
 20
8.200652262981052
 30
0.0
 11
-6.029482976314281
 21
8.200652262981052
 31
0.0
  0
LINE
  5
139
330
49
100
AcDbEntity
  8
0
 62
   252
370
     0
100
AcDbLine
 10
-4.135823291090303
 20
8.44995729012135
 30
0.0
 11
-4.135823291090303
 21
8.44995729012135
 31
0.0
  0
LINE
  5
13A
330
49
100
AcDbEntity
  8
0
 62
   252
370
     0
100
AcDbLine
 10
-0.978071407614717
 20
8.865683212342216
 30
0.0
 11
-0.978071407614717
 21
8.865683212342216
 31
0.0
  0
LINE
  5
13B
330
49
100
AcDbEntity
  8
0
 62
   252
370
     0
100
AcDbLine
 10
0.2736277298697196
 20
9.03047253002003
 30
0.0
 11
0.2736277298697196
 21
9.03047253002003
 31
0.0
  0
LINE
  5
13C
330
49
100
AcDbEntity
  8
0
 62
   252
370
     0
100
AcDbLine
 10
2.167287415093697
 20
9.279777557160328
 30
0.0
 11
2.167287415093697
 21
9.279777557160328
 31
0.0
  0
LINE
  5
13D
330
49
100
AcDbEntity
  8
0
 62
   252
370
     0
100
AcDbLine
 10
5.325039298569283
 20
9.695503479381191
 30
0.0
 11
5.325039298569283
 21
9.695503479381191
 31
0.0
  0
LINE
  5
13E
330
49
100
AcDbEntity
  8
0
 62
   252
370
     0
100
AcDbLine
 10
6.576738436053718
 20
9.860292797059007
 30
0.0
 11
6.576738436053718
 21
9.860292797059007
 31
0.0
  0
LINE
  5
13F
330
49
100
AcDbEntity
  8
0
 62
   252
370
     0
100
AcDbLine
 10
7.110286932057133
 20
9.930535789141855
 30
0.0
 11
7.110286932057133
 21
9.930535789141855
 31
0.0
  0
LINE
  5
140
330
49
100
AcDbEntity
  8
0
 62
   252
370
     0
100
AcDbLine
 10
8.0
 20
10.04766873667268
 30
0.0
 11
8.0
 21
10.04766873667268
 31
0.0
  0
LINE
  5
141
330
49
100
AcDbEntity
  8
0
 62
   252
370
     0
100
AcDbLine
 10
-8.0
 20
9.740118526469049
 30
0.0
 11
-8.0
 21
9.740118526469049
 31
0.0
  0
LINE
  5
142
330
49
100
AcDbEntity
  8
0
 62
   252
370
     0
100
AcDbLine
 10
-7.237437439604129
 20
9.840511792111805
 30
0.0
 11
-7.237437439604129
 21
9.840511792111805
 31
0.0
  0
LINE
  5
143
330
49
100
AcDbEntity
  8
0
 62
   252
370
     0
100
AcDbLine
 10
-5.965834426587977
 20
10.00792150471504
 30
0.0
 11
-5.965834426587977
 21
10.00792150471504
 31
0.0
  0
LINE
  5
144
330
49
100
AcDbEntity
  8
0
 62
   252
370
     0
100
AcDbLine
 10
-4.71413528910354
 20
10.17271082239285
 30
0.0
 11
-4.71413528910354
 21
10.17271082239285
 31
0.0
  0
LINE
  5
145
330
49
100
AcDbEntity
  8
0
 62
   252
370
     0
100
AcDbLine
 10
-2.820475603879562
 20
10.42201584953315
 30
0.0
 11
-2.820475603879562
 21
10.42201584953315
 31
0.0
  0
LINE
  5
146
330
49
100
AcDbEntity
  8
0
 62
   252
370
     0
100
AcDbLine
 10
0.3372762795960256
 20
10.83774177175401
 30
0.0
 11
0.3372762795960256
 21
10.83774177175401
 31
0.0
  0
LINE
  5
147
330
49
100
AcDbEntity
  8
0
 62
   252
370
     0
100
AcDbLine
 10
1.58897541708046
 20
11.00253108943183
 30
0.0
 11
1.58897541708046
 21
11.00253108943183
 31
0.0
  0
LINE
  5
148
330
49
100
AcDbEntity
  8
0
 62
   252
370
     0
100
AcDbLine
 10
3.482635102304439
 20
11.25183611657213
 30
0.0
 11
3.482635102304439
 21
11.25183611657213
 31
0.0
  0
LINE
  5
149
330
49
100
AcDbEntity
  8
0
 62
   252
370
     0
100
AcDbLine
 10
6.640386985780026
 20
11.66756203879299
 30
0.0
 11
6.640386985780026
 21
11.66756203879299
 31
0.0
  0
LINE
  5
14A
330
49
100
AcDbEntity
  8
0
 62
   252
370
     0
100
AcDbLine
 10
7.892086123264463
 20
11.83235135647081
 30
0.0
 11
7.892086123264463
 21
11.83235135647081
 31
0.0
  0
LINE
  5
14B
330
49
100
AcDbEntity
  8
0
 62
   252
370
     0
100
AcDbLine
 10
7.932540589322338
 20
11.83767728796589
 30
0.0
 11
7.932540589322338
 21
11.83767728796589
 31
0.0
  0
LINE
  5
14C
330
49
100
AcDbEntity
  8
0
 62
   252
370
     0
100
AcDbLine
 10
8.0
 20
11.84655848786738
 30
0.0
 11
8.0
 21
11.84655848786738
 31
0.0
  0
LINE
  5
14D
330
49
100
AcDbEntity
  8
0
 62
   252
370
     0
100
AcDbLine
 10
-8.0
 20
11.53900827766375
 30
0.0
 11
-8.0
 21
11.53900827766375
 31
0.0
  0
LINE
  5
14E
330
49
100
AcDbEntity
  8
0
 62
   252
370
     0
100
AcDbLine
 10
-6.74434340965859
 20
11.70431860389427
 30
0.0
 11
-6.74434340965859
 21
11.70431860389427
 31
0.0
  0
LINE
  5
14F
330
49
100
AcDbEntity
  8
0
 62
   252
370
     0
100
AcDbLine
 10
-4.650486739377234
 20
11.97998006412684
 30
0.0
 11
-4.650486739377234
 21
11.97998006412684
 31
0.0
  0
LINE
  5
150
330
49
100
AcDbEntity
  8
0
 62
   252
370
     0
100
AcDbLine
 10
-7.362569018599543
 20
0.8048651550633451
 30
0.0
 11
-7.362569018599543
 21
0.8048651550633451
 31
0.0
  0
LINE
  5
151
330
49
100
AcDbEntity
  8
0
 62
   252
370
     0
100
AcDbLine
 10
-7.055922119223969
 20
0.6095095349023394
 30
0.0
 11
-7.055922119223969
 21
0.6095095349023394
 31
0.0
  0
LINE
  5
152
330
49
100
AcDbEntity
  8
0
 62
   252
370
     0
100
AcDbLine
 10
-6.09918379317218
 20
0.0000000000000013
 30
0.0
 11
-6.09918379317218
 21
0.0000000000000013
 31
0.0
  0
LINE
  5
153
330
49
100
AcDbEntity
  8
0
 62
   252
370
     0
100
AcDbLine
 10
-8.000000000000002
 20
2.798591111145253
 30
0.0
 11
-8.000000000000002
 21
2.798591111145253
 31
0.0
  0
LINE
  5
154
330
49
100
AcDbEntity
  8
0
 62
   252
370
     0
100
AcDbLine
 10
-7.089642452032145
 20
2.218629390633301
 30
0.0
 11
-7.089642452032145
 21
2.218629390633301
 31
0.0
  0
LINE
  5
155
330
49
100
AcDbEntity
  8
0
 62
   252
370
     0
100
AcDbLine
 10
-4.249326902372432
 20
0.4091488226360078
 30
0.0
 11
-4.249326902372432
 21
0.4091488226360078
 31
0.0
  0
LINE
  5
156
330
49
100
AcDbEntity
  8
0
 62
   252
370
     0
100
AcDbLine
 10
-8.000000000000002
 20
4.386228745659595
 30
0.0
 11
-8.000000000000002
 21
4.386228745659595
 31
0.0
  0
LINE
  5
157
330
49
100
AcDbEntity
  8
0
 62
   252
370
     0
100
AcDbLine
 10
-7.388240468951866
 20
3.996494941663289
 30
0.0
 11
-7.388240468951866
 21
3.996494941663289
 31
0.0
  0
LINE
  5
158
330
49
100
AcDbEntity
  8
0
 62
   252
370
     0
100
AcDbLine
 10
-5.479550732081682
 20
2.780525473194814
 30
0.0
 11
-5.479550732081682
 21
2.780525473194814
 31
0.0
  0
LINE
  5
159
330
49
100
AcDbEntity
  8
0
 62
   252
370
     0
100
AcDbLine
 10
-2.34522382970925
 20
2.371376650558807
 30
0.0
 11
-2.34522382970925
 21
2.371376650558807
 31
0.0
  0
LINE
  5
15A
330
49
100
AcDbEntity
  8
0
 62
   252
370
     0
100
AcDbLine
 10
-1.441749138860867
 20
1.795799793627058
 30
0.0
 11
-1.441749138860867
 21
1.795799793627058
 31
0.0
  0
LINE
  5
15B
330
49
100
AcDbEntity
  8
0
 62
   252
370
     0
100
AcDbLine
 10
1.37709189658609
 20
-0.0000000000000004
 30
0.0
 11
1.37709189658609
 21
-0.0000000000000004
 31
0.0
  0
LINE
  5
15C
330
49
100
AcDbEntity
  8
0
 62
   252
370
     0
100
AcDbLine
 10
-8.000000000000002
 20
5.973866380173936
 30
0.0
 11
-8.000000000000002
 21
5.973866380173936
 31
0.0
  0
LINE
  5
15D
330
49
100
AcDbEntity
  8
0
 62
   252
370
     0
100
AcDbLine
 10
-7.686838485871587
 20
5.774360492693277
 30
0.0
 11
-7.686838485871587
 21
5.774360492693277
 31
0.0
  0
LINE
  5
15E
330
49
100
AcDbEntity
  8
0
 62
   252
370
     0
100
AcDbLine
 10
-6.709774561790932
 20
5.151902123753621
 30
0.0
 11
-6.709774561790932
 21
5.151902123753621
 31
0.0
  0
LINE
  5
15F
330
49
100
AcDbEntity
  8
0
 62
   252
370
     0
100
AcDbLine
 10
-3.575447659418503
 20
4.742753301117616
 30
0.0
 11
-3.575447659418503
 21
4.742753301117616
 31
0.0
  0
LINE
  5
160
330
49
100
AcDbEntity
  8
0
 62
   252
370
     0
100
AcDbLine
 10
-2.521208352152395
 20
4.071128790684085
 30
0.0
 11
-2.521208352152395
 21
4.071128790684085
 31
0.0
  0
LINE
  5
161
330
49
100
AcDbEntity
  8
0
 62
   252
370
     0
100
AcDbLine
 10
0.7680182865178597
 20
1.975660318131471
 30
0.0
 11
0.7680182865178597
 21
1.975660318131471
 31
0.0
  0
LINE
  5
162
330
49
100
AcDbEntity
  8
0
 62
   252
370
     0
100
AcDbLine
 10
-8.0
 20
7.561504014688277
 30
0.0
 11
-8.0
 21
7.561504014688277
 31
0.0
  0
LINE
  5
163
330
49
100
AcDbEntity
  8
0
 62
   252
370
     0
100
AcDbLine
 10
-7.985436502791307
 20
7.552226043723266
 30
0.0
 11
-7.985436502791307
 21
7.552226043723266
 31
0.0
  0
LINE
  5
164
330
49
100
AcDbEntity
  8
0
 62
   252
370
     0
100
AcDbLine
 10
-7.939998391500187
 20
7.523278774312431
 30
0.0
 11
-7.939998391500187
 21
7.523278774312431
 31
0.0
  0
LINE
  5
165
330
49
100
AcDbEntity
  8
0
 62
   252
370
     0
100
AcDbLine
 10
3.902345188890293
 20
1.566511495495461
 30
0.0
 11
3.902345188890293
 21
1.566511495495461
 31
0.0
  0
LINE
  5
166
330
49
100
AcDbEntity
  8
0
 62
   252
370
     0
100
AcDbLine
 10
4.499172980363102
 20
1.186290258724718
 30
0.0
 11
4.499172980363102
 21
1.186290258724718
 31
0.0
  0
LINE
  5
167
330
49
100
AcDbEntity
  8
0
 62
   252
370
     0
100
AcDbLine
 10
6.361275689758269
 20
-0.0000000000000013
 30
0.0
 11
6.361275689758269
 21
-0.0000000000000013
 31
0.0
  0
LINE
  5
168
330
49
100
AcDbEntity
  8
0
 62
   252
370
     0
100
AcDbLine
 10
-4.80567148912775
 20
7.11412995167642
 30
0.0
 11
-4.80567148912775
 21
7.11412995167642
 31
0.0
  0
LINE
  5
169
330
49
100
AcDbEntity
  8
0
 62
   252
370
     0
100
AcDbLine
 10
-3.751432181861643
 20
6.44250544124289
 30
0.0
 11
-3.751432181861643
 21
6.44250544124289
 31
0.0
  0
LINE
  5
16A
330
49
100
AcDbEntity
  8
0
 62
   252
370
     0
100
AcDbLine
 10
-0.4622055431913887
 20
4.347036968690275
 30
0.0
 11
-0.4622055431913887
 21
4.347036968690275
 31
0.0
  0
LINE
  5
16B
330
49
100
AcDbEntity
  8
0
 62
   252
370
     0
100
AcDbLine
 10
2.672121359181042
 20
3.937888146054269
 30
0.0
 11
2.672121359181042
 21
3.937888146054269
 31
0.0
  0
LINE
  5
16C
330
49
100
AcDbEntity
  8
0
 62
   252
370
     0
100
AcDbLine
 10
3.726360666447149
 20
3.266263635620739
 30
0.0
 11
3.726360666447149
 21
3.266263635620739
 31
0.0
  0
LINE
  5
16D
330
49
100
AcDbEntity
  8
0
 62
   252
370
     0
100
AcDbLine
 10
7.015587305117402
 20
1.170795163068124
 30
0.0
 11
7.015587305117402
 21
1.170795163068124
 31
0.0
  0
LINE
  5
16E
330
49
100
AcDbEntity
  8
0
 62
   252
370
     0
100
AcDbLine
 10
-6.035895318837001
 20
9.48550660223523
 30
0.0
 11
-6.035895318837001
 21
9.48550660223523
 31
0.0
  0
LINE
  5
16F
330
49
100
AcDbEntity
  8
0
 62
   252
370
     0
100
AcDbLine
 10
-4.981656011570895
 20
8.8138820918017
 30
0.0
 11
-4.981656011570895
 21
8.8138820918017
 31
0.0
  0
LINE
  5
170
330
49
100
AcDbEntity
  8
0
 62
   252
370
     0
100
AcDbLine
 10
-1.69242937290064
 20
6.718413619249084
 30
0.0
 11
-1.69242937290064
 21
6.718413619249084
 31
0.0
  0
LINE
  5
171
330
49
100
AcDbEntity
  8
0
 62
   252
370
     0
100
AcDbLine
 10
1.441897529471791
 20
6.309264796613077
 30
0.0
 11
1.441897529471791
 21
6.309264796613077
 31
0.0
  0
LINE
  5
172
330
49
100
AcDbEntity
  8
0
 62
   252
370
     0
100
AcDbLine
 10
2.496136836737898
 20
5.637640286179547
 30
0.0
 11
2.496136836737898
 21
5.637640286179547
 31
0.0
  0
LINE
  5
173
330
49
100
AcDbEntity
  8
0
 62
   252
370
     0
100
AcDbLine
 10
5.785363475408152
 20
3.542171813626933
 30
0.0
 11
5.785363475408152
 21
3.542171813626933
 31
0.0
  0
LINE
  5
174
330
49
100
AcDbEntity
  8
0
 62
   252
370
     0
100
AcDbLine
 10
-7.266119148546249
 20
11.85688325279403
 30
0.0
 11
-7.266119148546249
 21
11.85688325279403
 31
0.0
  0
LINE
  5
175
330
49
100
AcDbEntity
  8
0
 62
   252
370
     0
100
AcDbLine
 10
-6.211879841280142
 20
11.1852587423605
 30
0.0
 11
-6.211879841280142
 21
11.1852587423605
 31
0.0
  0
LINE
  5
176
330
49
100
AcDbEntity
  8
0
 62
   252
370
     0
100
AcDbLine
 10
-2.92265320260989
 20
9.089790269807892
 30
0.0
 11
-2.92265320260989
 21
9.089790269807892
 31
0.0
  0
LINE
  5
177
330
49
100
AcDbEntity
  8
0
 62
   252
370
     0
100
AcDbLine
 10
0.2116736997625397
 20
8.680641447171885
 30
0.0
 11
0.2116736997625397
 21
8.680641447171885
 31
0.0
  0
LINE
  5
178
330
49
100
AcDbEntity
  8
0
 62
   252
370
     0
100
AcDbLine
 10
1.265913007028647
 20
8.009016936738355
 30
0.0
 11
1.265913007028647
 21
8.009016936738355
 31
0.0
  0
LINE
  5
179
330
49
100
AcDbEntity
  8
0
 62
   252
370
     0
100
AcDbLine
 10
4.555139645698901
 20
5.91354846418574
 30
0.0
 11
4.555139645698901
 21
5.91354846418574
 31
0.0
  0
LINE
  5
17A
330
49
100
AcDbEntity
  8
0
 62
   252
370
     0
100
AcDbLine
 10
-4.998675545893336
 20
12.0
 30
0.0
 11
-4.998675545893336
 21
12.0
 31
0.0
  0
LINE
  5
17B
330
49
100
AcDbEntity
  8
0
 62
   252
370
     0
100
AcDbLine
 10
-4.793384644540376
 20
11.86921527193367
 30
0.0
 11
-4.793384644540376
 21
11.86921527193367
 31
0.0
  0
LINE
  5
17C
330
49
100
AcDbEntity
  8
0
 62
   252
370
     0
100
AcDbLine
 10
-4.152877032319142
 20
11.4611669203667
 30
0.0
 11
-4.152877032319142
 21
11.4611669203667
 31
0.0
  0
LINE
  5
17D
330
49
100
AcDbEntity
  8
0
 62
   252
370
     0
100
AcDbLine
 10
7.689466548071335
 20
5.504399641549732
 30
0.0
 11
7.689466548071335
 21
5.504399641549732
 31
0.0
  0
LINE
  5
17E
330
49
100
AcDbEntity
  8
0
 62
   252
370
     0
100
AcDbLine
 10
7.764838745141399
 20
5.456382256304672
 30
0.0
 11
7.764838745141399
 21
5.456382256304672
 31
0.0
  0
LINE
  5
17F
330
49
100
AcDbEntity
  8
0
 62
   252
370
     0
100
AcDbLine
 10
7.999999999999999
 20
5.306568014340086
 30
0.0
 11
7.999999999999999
 21
5.306568014340086
 31
0.0
  0
LINE
  5
180
330
49
100
AcDbEntity
  8
0
 62
   252
370
     0
100
AcDbLine
 10
-1.018550129946707
 20
11.05201809773069
 30
0.0
 11
-1.018550129946707
 21
11.05201809773069
 31
0.0
  0
LINE
  5
181
330
49
100
AcDbEntity
  8
0
 62
   252
370
     0
100
AcDbLine
 10
0.0356891773193995
 20
10.38039358729716
 30
0.0
 11
0.0356891773193995
 21
10.38039358729716
 31
0.0
  0
LINE
  5
182
330
49
100
AcDbEntity
  8
0
 62
   252
370
     0
100
AcDbLine
 10
3.324915815989653
 20
8.284925114744546
 30
0.0
 11
3.324915815989653
 21
8.284925114744546
 31
0.0
  0
LINE
  5
183
330
49
100
AcDbEntity
  8
0
 62
   252
370
     0
100
AcDbLine
 10
6.459242718362083
 20
7.875776292108538
 30
0.0
 11
6.459242718362083
 21
7.875776292108538
 31
0.0
  0
LINE
  5
184
330
49
100
AcDbEntity
  8
0
 62
   252
370
     0
100
AcDbLine
 10
6.833212932351868
 20
7.637530990347832
 30
0.0
 11
6.833212932351868
 21
7.637530990347832
 31
0.0
  0
LINE
  5
185
330
49
100
AcDbEntity
  8
0
 62
   252
370
     0
100
AcDbLine
 10
7.999999999999999
 20
6.894205648854427
 30
0.0
 11
7.999999999999999
 21
6.894205648854427
 31
0.0
  0
LINE
  5
186
330
49
100
AcDbEntity
  8
0
 62
   252
370
     0
100
AcDbLine
 10
-0.0144917527211552
 20
12.0
 30
0.0
 11
-0.0144917527211552
 21
12.0
 31
0.0
  0
LINE
  5
187
330
49
100
AcDbEntity
  8
0
 62
   252
370
     0
100
AcDbLine
 10
0.497446048007378
 20
11.67385965177266
 30
0.0
 11
0.497446048007378
 21
11.67385965177266
 31
0.0
  0
LINE
  5
188
330
49
100
AcDbEntity
  8
0
 62
   252
370
     0
100
AcDbLine
 10
2.094691986280402
 20
10.65630176530335
 30
0.0
 11
2.094691986280402
 21
10.65630176530335
 31
0.0
  0
LINE
  5
189
330
49
100
AcDbEntity
  8
0
 62
   252
370
     0
100
AcDbLine
 10
5.229018888652833
 20
10.24715294266735
 30
0.0
 11
5.229018888652833
 21
10.24715294266735
 31
0.0
  0
LINE
  5
18A
330
49
100
AcDbEntity
  8
0
 62
   252
370
     0
100
AcDbLine
 10
5.90158711956234
 20
9.818679724390993
 30
0.0
 11
5.90158711956234
 21
9.818679724390993
 31
0.0
  0
LINE
  5
18B
330
49
100
AcDbEntity
  8
0
 62
   252
370
     0
100
AcDbLine
 10
7.999999999999999
 20
8.481843283368768
 30
0.0
 11
7.999999999999999
 21
8.481843283368768
 31
0.0
  0
LINE
  5
18C
330
49
100
AcDbEntity
  8
0
 62
   252
370
     0
100
AcDbLine
 10
4.969692040451029
 20
12.0
 30
0.0
 11
4.969692040451029
 21
12.0
 31
0.0
  0
LINE
  5
18D
330
49
100
AcDbEntity
  8
0
 62
   252
370
     0
100
AcDbLine
 10
5.705203681118255
 20
11.53142740725318
 30
0.0
 11
5.705203681118255
 21
11.53142740725318
 31
0.0
  0
LINE
  5
18E
330
49
100
AcDbEntity
  8
0
 62
   252
370
     0
100
AcDbLine
 10
8.0
 20
10.06948091788311
 30
0.0
 11
8.0
 21
10.06948091788311
 31
0.0
  0
LINE
  5
18F
330
49
100
AcDbEntity
  8
0
 62
   252
370
     0
100
AcDbLine
 10
-7.676598331946006
 20
2.381948268151389
 30
0.0
 11
-7.676598331946006
 21
2.381948268151389
 31
0.0
  0
LINE
  5
190
330
49
100
AcDbEntity
  8
0
 62
   252
370
     0
100
AcDbLine
 10
-6.674441596363832
 20
1.463640810085907
 30
0.0
 11
-6.674441596363832
 21
1.463640810085907
 31
0.0
  0
LINE
  5
191
330
49
100
AcDbEntity
  8
0
 62
   252
370
     0
100
AcDbLine
 10
-5.077157937805167
 20
0.0000000000000013
 30
0.0
 11
-5.077157937805167
 21
0.0000000000000013
 31
0.0
  0
LINE
  5
192
330
49
100
AcDbEntity
  8
0
 62
   252
370
     0
100
AcDbLine
 10
-7.432118187431878
 20
5.33040673808756
 30
0.0
 11
-7.432118187431878
 21
5.33040673808756
 31
0.0
  0
LINE
  5
193
330
49
100
AcDbEntity
  8
0
 62
   252
370
     0
100
AcDbLine
 10
-6.234042515115426
 20
4.232572650712112
 30
0.0
 11
-6.234042515115426
 21
4.232572650712112
 31
0.0
  0
LINE
  5
194
330
49
100
AcDbEntity
  8
0
 62
   252
370
     0
100
AcDbLine
 10
-4.324494212777205
 20
2.482794012987552
 30
0.0
 11
-4.324494212777205
 21
2.482794012987552
 31
0.0
  0
LINE
  5
195
330
49
100
AcDbEntity
  8
0
 62
   252
370
     0
100
AcDbLine
 10
-1.370519855485873
 20
2.948458469936172
 30
0.0
 11
-1.370519855485873
 21
2.948458469936172
 31
0.0
  0
LINE
  5
196
330
49
100
AcDbEntity
  8
0
 62
   252
370
     0
100
AcDbLine
 10
-0.1724441831694212
 20
1.850624382560724
 30
0.0
 11
-0.1724441831694212
 21
1.850624382560724
 31
0.0
  0
LINE
  5
197
330
49
100
AcDbEntity
  8
0
 62
   252
370
     0
100
AcDbLine
 10
1.7371041191688
 20
0.1008457448361635
 30
0.0
 11
1.7371041191688
 21
0.1008457448361635
 31
0.0
  0
LINE
  5
198
330
49
100
AcDbEntity
  8
0
 62
   252
370
     0
100
AcDbLine
 10
-7.187638042917751
 20
8.278865208023731
 30
0.0
 11
-7.187638042917751
 21
8.278865208023731
 31
0.0
  0
LINE
  5
199
330
49
100
AcDbEntity
  8
0
 62
   252
370
     0
100
AcDbLine
 10
-5.989562370601299
 20
7.181031120648283
 30
0.0
 11
-5.989562370601299
 21
7.181031120648283
 31
0.0
  0
LINE
  5
19A
330
49
100
AcDbEntity
  8
0
 62
   252
370
     0
100
AcDbLine
 10
-4.080014068263078
 20
5.431252482923724
 30
0.0
 11
-4.080014068263078
 21
5.431252482923724
 31
0.0
  0
LINE
  5
19B
330
49
100
AcDbEntity
  8
0
 62
   252
370
     0
100
AcDbLine
 10
4.691078476460134
 20
0.5665102017847826
 30
0.0
 11
4.691078476460134
 21
0.5665102017847826
 31
0.0
  0
LINE
  5
19C
330
49
100
AcDbEntity
  8
0
 62
   252
370
     0
100
AcDbLine
 10
4.929426228208433
 20
0.3481047266008505
 30
0.0
 11
4.929426228208433
 21
0.3481047266008505
 31
0.0
  0
LINE
  5
19D
330
49
100
AcDbEntity
  8
0
 62
   252
370
     0
100
AcDbLine
 10
5.309315875610337
 20
-0.0000000000000012
 30
0.0
 11
5.309315875610337
 21
-0.0000000000000012
 31
0.0
  0
LINE
  5
19E
330
49
100
AcDbEntity
  8
0
 62
   252
370
     0
100
AcDbLine
 10
-1.126039710971743
 20
5.896916939872342
 30
0.0
 11
-1.126039710971743
 21
5.896916939872342
 31
0.0
  0
LINE
  5
19F
330
49
100
AcDbEntity
  8
0
 62
   252
370
     0
100
AcDbLine
 10
0.0720359613447086
 20
4.799082852496894
 30
0.0
 11
0.0720359613447086
 21
4.799082852496894
 31
0.0
  0
LINE
  5
1A0
330
49
100
AcDbEntity
  8
0
 62
   252
370
     0
100
AcDbLine
 10
1.981584263682929
 20
3.049304214772334
 30
0.0
 11
1.981584263682929
 21
3.049304214772334
 31
0.0
  0
LINE
  5
1A1
330
49
100
AcDbEntity
  8
0
 62
   252
370
     0
100
AcDbLine
 10
-6.94315789840362
 20
11.2273236779599
 30
0.0
 11
-6.94315789840362
 21
11.2273236779599
 31
0.0
  0
LINE
  5
1A2
330
49
100
AcDbEntity
  8
0
 62
   252
370
     0
100
AcDbLine
 10
-5.745082226087169
 20
10.12948959058445
 30
0.0
 11
-5.745082226087169
 21
10.12948959058445
 31
0.0
  0
LINE
  5
1A3
330
49
100
AcDbEntity
  8
0
 62
   252
370
     0
100
AcDbLine
 10
-3.835533923748949
 20
8.379710952859895
 30
0.0
 11
-3.835533923748949
 21
8.379710952859895
 31
0.0
  0
LINE
  5
1A4
330
49
100
AcDbEntity
  8
0
 62
   252
370
     0
100
AcDbLine
 10
4.935558620974261
 20
3.514968671720955
 30
0.0
 11
4.935558620974261
 21
3.514968671720955
 31
0.0
  0
LINE
  5
1A5
330
49
100
AcDbEntity
  8
0
 62
   252
370
     0
100
AcDbLine
 10
6.116986198890471
 20
2.432389752232433
 30
0.0
 11
6.116986198890471
 21
2.432389752232433
 31
0.0
  0
LINE
  5
1A6
330
49
100
AcDbEntity
  8
0
 62
   252
370
     0
100
AcDbLine
 10
7.999999999999998
 20
0.7069255051707284
 30
0.0
 11
7.999999999999998
 21
0.7069255051707284
 31
0.0
  0
LINE
  5
1A7
330
49
100
AcDbEntity
  8
0
 62
   252
370
     0
100
AcDbLine
 10
-0.8815595664576161
 20
8.845375409808515
 30
0.0
 11
-0.8815595664576161
 21
8.845375409808515
 31
0.0
  0
LINE
  5
1A8
330
49
100
AcDbEntity
  8
0
 62
   252
370
     0
100
AcDbLine
 10
0.3165161058588353
 20
7.747541322433067
 30
0.0
 11
0.3165161058588353
 21
7.747541322433067
 31
0.0
  0
LINE
  5
1A9
330
49
100
AcDbEntity
  8
0
 62
   252
370
     0
100
AcDbLine
 10
2.226064408197056
 20
5.997762684708507
 30
0.0
 11
2.226064408197056
 21
5.997762684708507
 31
0.0
  0
LINE
  5
1AA
330
49
100
AcDbEntity
  8
0
 62
   252
370
     0
100
AcDbLine
 10
-4.324228199415749
 20
12.0
 30
0.0
 11
-4.324228199415749
 21
12.0
 31
0.0
  0
LINE
  5
1AB
330
49
100
AcDbEntity
  8
0
 62
   252
370
     0
100
AcDbLine
 10
-4.041569022003173
 20
11.74099058411474
 30
0.0
 11
-4.041569022003173
 21
11.74099058411474
 31
0.0
  0
LINE
  5
1AC
330
49
100
AcDbEntity
  8
0
 62
   252
370
     0
100
AcDbLine
 10
-3.591053779234822
 20
11.32816942279607
 30
0.0
 11
-3.591053779234822
 21
11.32816942279607
 31
0.0
  0
LINE
  5
1AD
330
49
100
AcDbEntity
  8
0
 62
   252
370
     0
100
AcDbLine
 10
5.180038765488391
 20
6.463427141657126
 30
0.0
 11
5.180038765488391
 21
6.463427141657126
 31
0.0
  0
LINE
  5
1AE
330
49
100
AcDbEntity
  8
0
 62
   252
370
     0
100
AcDbLine
 10
6.267212432411609
 20
5.467216019084546
 30
0.0
 11
6.267212432411609
 21
5.467216019084546
 31
0.0
  0
LINE
  5
1AF
330
49
100
AcDbEntity
  8
0
 62
   252
370
     0
100
AcDbLine
 10
7.999999999999999
 20
3.879408752953481
 30
0.0
 11
7.999999999999999
 21
3.879408752953481
 31
0.0
  0
LINE
  5
1B0
330
49
100
AcDbEntity
  8
0
 62
   252
370
     0
100
AcDbLine
 10
-0.6370794219434871
 20
11.79383387974469
 30
0.0
 11
-0.6370794219434871
 21
11.79383387974469
 31
0.0
  0
LINE
  5
1B1
330
49
100
AcDbEntity
  8
0
 62
   252
370
     0
100
AcDbLine
 10
0.5609962503729643
 20
10.69599979236924
 30
0.0
 11
0.5609962503729643
 21
10.69599979236924
 31
0.0
  0
LINE
  5
1B2
330
49
100
AcDbEntity
  8
0
 62
   252
370
     0
100
AcDbLine
 10
2.470544552711185
 20
8.946221154644677
 30
0.0
 11
2.470544552711185
 21
8.946221154644677
 31
0.0
  0
LINE
  5
1B3
330
49
100
AcDbEntity
  8
0
 62
   252
370
     0
100
AcDbLine
 10
5.424518910002519
 20
9.411885611593299
 30
0.0
 11
5.424518910002519
 21
9.411885611593299
 31
0.0
  0
LINE
  5
1B4
330
49
100
AcDbEntity
  8
0
 62
   252
370
     0
100
AcDbLine
 10
6.417438665932745
 20
8.50204228593666
 30
0.0
 11
6.417438665932745
 21
8.50204228593666
 31
0.0
  0
LINE
  5
1B5
330
49
100
AcDbEntity
  8
0
 62
   252
370
     0
100
AcDbLine
 10
7.999999999999999
 20
7.051892000736235
 30
0.0
 11
7.999999999999999
 21
7.051892000736235
 31
0.0
  0
LINE
  5
1B6
330
49
100
AcDbEntity
  8
0
 62
   252
370
     0
100
AcDbLine
 10
2.600087676194587
 20
12.0
 30
0.0
 11
2.600087676194587
 21
12.0
 31
0.0
  0
LINE
  5
1B7
330
49
100
AcDbEntity
  8
0
 62
   252
370
     0
100
AcDbLine
 10
2.644399101858864
 20
11.95939605929867
 30
0.0
 11
2.644399101858864
 21
11.95939605929867
 31
0.0
  0
LINE
  5
1B8
330
49
100
AcDbEntity
  8
0
 62
   252
370
     0
100
AcDbLine
 10
2.715024697225313
 20
11.89467962458085
 30
0.0
 11
2.715024697225313
 21
11.89467962458085
 31
0.0
  0
LINE
  5
1B9
330
49
100
AcDbEntity
  8
0
 62
   252
370
     0
100
AcDbLine
 10
6.062245613999755
 20
12.0
 30
0.0
 11
6.062245613999755
 21
12.0
 31
0.0
  0
LINE
  5
1BA
330
49
100
AcDbEntity
  8
0
 62
   252
370
     0
100
AcDbLine
 10
6.809303947866991
 20
11.31544715986793
 30
0.0
 11
6.809303947866991
 21
11.31544715986793
 31
0.0
  0
LINE
  5
1BB
330
49
100
AcDbEntity
  8
0
 62
   252
370
     0
100
AcDbLine
 10
8.0
 20
10.22437524851898
 30
0.0
 11
8.0
 21
10.22437524851898
 31
0.0
  0
LINE
  5
1BC
330
49
100
AcDbEntity
  8
0
 62
     7
370
    18
100
AcDbLine
 10
8.0
 20
12.0
 30
0.0
 11
7.999999999999998
 21
-0.0000000000000018
 31
0.0
  0
LINE
  5
1BD
330
49
100
AcDbEntity
  8
0
 62
     7
370
    18
100
AcDbLine
 10
7.999999999999998
 20
-0.0000000000000018
 30
0.0
 11
-8.000000000000002
 21
0.0000000000000018
 31
0.0
  0
LINE
  5
1BE
330
49
100
AcDbEntity
  8
0
 62
     7
370
    18
100
AcDbLine
 10
-8.000000000000002
 20
0.0000000000000018
 30
0.0
 11
-8.0
 21
12.0
 31
0.0
  0
LINE
  5
1BF
330
49
100
AcDbEntity
  8
0
 62
     7
370
    18
100
AcDbLine
 10
-8.0
 20
12.0
 30
0.0
 11
8.0
 21
12.0
 31
0.0
  0
SOLID
  5
1C0
330
49
100
AcDbEntity
  8
0
 62
     7
100
AcDbTrace
 10
-5.692943842421471
 20
9.882600206260932
 30
0.0
 11
-6.442943842421471
 21
9.132600206260932
 31
0.0
 12
-6.417388212138272
 22
9.326714490087824
 32
0.0
 13
-6.436527488451828
 23
9.23049485042597
 33
0.0
  0
SOLID
  5
1C1
330
49
100
AcDbEntity
  8
0
 62
     7
100
AcDbTrace
 10
-5.692943842421471
 20
9.882600206260932
 30
0.0
 11
-6.417388212138272
 21
9.326714490087824
 31
0.0
 12
-6.3424628952598
 22
9.507600206260932
 32
0.0
 13
-6.385853491804935
 23
9.419612780534749
 33
0.0
  0
SOLID
  5
1C2
330
49
100
AcDbEntity
  8
0
 62
     7
100
AcDbTrace
 10
-5.692943842421471
 20
9.882600206260932
 30
0.0
 11
-6.3424628952598
 21
9.507600206260932
 31
0.0
 12
-6.223273928311381
 22
9.662930292150843
 32
0.0
 13
-6.287958847639898
 23
9.589171278017472
 33
0.0
  0
SOLID
  5
1C3
330
49
100
AcDbEntity
  8
0
 62
     7
100
AcDbTrace
 10
-5.692943842421471
 20
9.882600206260932
 30
0.0
 11
-6.223273928311381
 21
9.662930292150843
 31
0.0
 12
-6.067943842421471
 22
9.782119259099261
 32
0.0
 13
-6.149514914178011
 23
9.727615211479359
 33
0.0
  0
SOLID
  5
1C4
330
49
100
AcDbEntity
  8
0
 62
     7
100
AcDbTrace
 10
-5.692943842421471
 20
9.882600206260932
 30
0.0
 11
-6.067943842421471
 21
9.782119259099261
 31
0.0
 12
-5.887058126248362
 22
9.857044575977733
 32
0.0
 13
-5.979956416695289
 23
9.825509855644396
 33
0.0
  0
SOLID
  5
1C5
330
49
100
AcDbEntity
  8
0
 62
     7
100
AcDbTrace
 10
-5.692943842421471
 20
9.882600206260932
 30
0.0
 11
-5.887058126248362
 21
9.857044575977733
 31
0.0
 12
-5.692943842421471
 22
9.882600206260932
 32
0.0
 13
-5.79083848658651
 23
9.87618385229129
 33
0.0
  0
SOLID
  5
1C6
330
49
100
AcDbEntity
  8
0
 62
     7
100
AcDbTrace
 10
-0.6929438424214709
 20
9.132600206260932
 30
0.0
 11
-1.442943842421471
 21
9.882600206260932
 31
0.0
 12
-1.24882955859458
 22
9.857044575977733
 32
0.0
 13
-1.345049198256432
 23
9.87618385229129
 33
0.0
  0
SOLID
  5
1C7
330
49
100
AcDbEntity
  8
0
 62
     7
100
AcDbTrace
 10
-0.6929438424214709
 20
9.132600206260932
 30
0.0
 11
-1.24882955859458
 21
9.857044575977733
 31
0.0
 12
-1.067943842421471
 22
9.782119259099261
 32
0.0
 13
-1.155931268147653
 23
9.825509855644396
 33
0.0
  0
SOLID
  5
1C8
330
49
100
AcDbEntity
  8
0
 62
     7
100
AcDbTrace
 10
-0.6929438424214709
 20
9.132600206260932
 30
0.0
 11
-1.067943842421471
 21
9.782119259099261
 31
0.0
 12
-0.9126137565315602
 22
9.662930292150843
 32
0.0
 13
-0.9863727706649303
 23
9.727615211479359
 33
0.0
  0
SOLID
  5
1C9
330
49
100
AcDbEntity
  8
0
 62
     7
100
AcDbTrace
 10
-0.6929438424214709
 20
9.132600206260932
 30
0.0
 11
-0.9126137565315602
 21
9.662930292150843
 31
0.0
 12
-0.7934247895831419
 22
9.507600206260932
 32
0.0
 13
-0.8479288372030445
 23
9.589171278017472
 33
0.0
  0
SOLID
  5
1CA
330
49
100
AcDbEntity
  8
0
 62
     7
100
AcDbTrace
 10
-0.6929438424214709
 20
9.132600206260932
 30
0.0
 11
-0.7934247895831419
 21
9.507600206260932
 31
0.0
 12
-0.7184994727046696
 22
9.326714490087822
 32
0.0
 13
-0.7500341930380059
 23
9.419612780534749
 33
0.0
  0
SOLID
  5
1CB
330
49
100
AcDbEntity
  8
0
 62
     7
100
AcDbTrace
 10
-0.6929438424214709
 20
9.132600206260932
 30
0.0
 11
-0.7184994727046696
 21
9.326714490087822
 31
0.0
 12
-0.6929438424214709
 22
9.132600206260932
 32
0.0
 13
-0.6993601963911131
 23
9.23049485042597
 33
0.0
  0
SOLID
  5
1CC
330
49
100
AcDbEntity
  8
0
 62
     7
100
AcDbTrace
 10
-1.442943842421471
 20
1.898065034671404
 30
0.0
 11
-0.6929438424214709
 21
2.648065034671404
 31
0.0
 12
-0.7184994727046696
 22
2.453950750844514
 32
0.0
 13
-0.6993601963911131
 23
2.550170390506366
 33
0.0
  0
SOLID
  5
1CD
330
49
100
AcDbEntity
  8
0
 62
     7
100
AcDbTrace
 10
-1.442943842421471
 20
1.898065034671404
 30
0.0
 11
-0.7184994727046696
 21
2.453950750844514
 31
0.0
 12
-0.7934247895831419
 22
2.273065034671404
 32
0.0
 13
-0.7500341930380059
 23
2.361052460397587
 33
0.0
  0
SOLID
  5
1CE
330
49
100
AcDbEntity
  8
0
 62
     7
100
AcDbTrace
 10
-1.442943842421471
 20
1.898065034671404
 30
0.0
 11
-0.7934247895831419
 21
2.273065034671404
 31
0.0
 12
-0.9126137565315602
 22
2.117734948781494
 32
0.0
 13
-0.8479288372030445
 23
2.191493962914864
 33
0.0
  0
SOLID
  5
1CF
330
49
100
AcDbEntity
  8
0
 62
     7
100
AcDbTrace
 10
-1.442943842421471
 20
1.898065034671404
 30
0.0
 11
-0.9126137565315602
 21
2.117734948781494
 31
0.0
 12
-1.067943842421471
 22
1.998545981833075
 32
0.0
 13
-0.9863727706649303
 23
2.053050029452978
 33
0.0
  0
SOLID
  5
1D0
330
49
100
AcDbEntity
  8
0
 62
     7
100
AcDbTrace
 10
-1.442943842421471
 20
1.898065034671404
 30
0.0
 11
-1.067943842421471
 21
1.998545981833075
 31
0.0
 12
-1.24882955859458
 22
1.923620664954603
 32
0.0
 13
-1.155931268147653
 23
1.955155385287939
 33
0.0
  0
SOLID
  5
1D1
330
49
100
AcDbEntity
  8
0
 62
     7
100
AcDbTrace
 10
-1.442943842421471
 20
1.898065034671404
 30
0.0
 11
-1.24882955859458
 21
1.923620664954603
 31
0.0
 12
-1.442943842421471
 22
1.898065034671404
 32
0.0
 13
-1.345049198256432
 23
1.904481388641047
 33
0.0
  0
SOLID
  5
1D2
330
49
100
AcDbEntity
  8
0
 62
     7
100
AcDbTrace
 10
-6.442943842421471
 20
2.648065034671404
 30
0.0
 11
-5.692943842421471
 21
1.898065034671404
 31
0.0
 12
-5.887058126248362
 22
1.923620664954603
 32
0.0
 13
-5.79083848658651
 23
1.904481388641047
 33
0.0
  0
SOLID
  5
1D3
330
49
100
AcDbEntity
  8
0
 62
     7
100
AcDbTrace
 10
-6.442943842421471
 20
2.648065034671404
 30
0.0
 11
-5.887058126248362
 21
1.923620664954603
 31
0.0
 12
-6.067943842421471
 22
1.998545981833076
 32
0.0
 13
-5.979956416695288
 23
1.955155385287939
 33
0.0
  0
SOLID
  5
1D4
330
49
100
AcDbEntity
  8
0
 62
     7
100
AcDbTrace
 10
-6.442943842421471
 20
2.648065034671404
 30
0.0
 11
-6.067943842421471
 21
1.998545981833076
 31
0.0
 12
-6.223273928311381
 22
2.117734948781494
 32
0.0
 13
-6.149514914178011
 23
2.053050029452978
 33
0.0
  0
SOLID
  5
1D5
330
49
100
AcDbEntity
  8
0
 62
     7
100
AcDbTrace
 10
-6.442943842421471
 20
2.648065034671404
 30
0.0
 11
-6.223273928311381
 21
2.117734948781494
 31
0.0
 12
-6.3424628952598
 22
2.273065034671404
 32
0.0
 13
-6.287958847639898
 23
2.191493962914864
 33
0.0
  0
SOLID
  5
1D6
330
49
100
AcDbEntity
  8
0
 62
     7
100
AcDbTrace
 10
-6.442943842421471
 20
2.648065034671404
 30
0.0
 11
-6.3424628952598
 21
2.273065034671404
 31
0.0
 12
-6.417388212138272
 22
2.453950750844514
 32
0.0
 13
-6.385853491804936
 23
2.361052460397588
 33
0.0
  0
SOLID
  5
1D7
330
49
100
AcDbEntity
  8
0
 62
     7
100
AcDbTrace
 10
-6.442943842421471
 20
2.648065034671404
 30
0.0
 11
-6.417388212138272
 21
2.453950750844514
 31
0.0
 12
-6.442943842421471
 22
2.648065034671404
 32
0.0
 13
-6.436527488451829
 23
2.550170390506366
 33
0.0
  0
SOLID
  5
1D8
330
49
100
AcDbEntity
  8
0
 62
     7
100
AcDbTrace
 10
-6.442943842421471
 20
9.132600206260932
 30
0.0
 11
-5.692943842421471
 21
9.882600206260932
 31
0.0
 12
-0.6929438424214709
 22
9.132600206260932
 32
0.0
 13
-1.442943842421471
 23
9.882600206260932
 33
0.0
  0
SOLID
  5
1D9
330
49
100
AcDbEntity
  8
0
 62
     7
100
AcDbTrace
 10
-6.442943842421471
 20
9.132600206260932
 30
0.0
 11
-0.6929438424214709
 21
9.132600206260932
 31
0.0
 12
-1.442943842421471
 22
1.898065034671404
 32
0.0
 13
-0.6929438424214709
 23
2.648065034671404
 33
0.0
  0
SOLID
  5
1DA
330
49
100
AcDbEntity
  8
0
 62
     7
100
AcDbTrace
 10
-6.442943842421471
 20
9.132600206260932
 30
0.0
 11
-1.442943842421471
 21
1.898065034671404
 31
0.0
 12
-6.442943842421471
 22
2.648065034671404
 32
0.0
 13
-5.692943842421471
 23
1.898065034671404
 33
0.0
  0
LWPOLYLINE
  5
1DB
330
49
100
AcDbEntity
  8
0
 62
     7
100
AcDbPolyline
 90
        8
 70
     1
 43
0.0
 10
-6.442943842421471
 20
9.132600206260932
 42
-0.414213562373095
 10
-5.692943842421471
 20
9.882600206260932
 10
-1.442943842421471
 20
9.882600206260932
 42
-0.414213562373095
 10
-0.6929438424214709
 20
9.132600206260932
 10
-0.6929438424214709
 20
2.648065034671404
 42
-0.414213562373095
 10
-1.442943842421471
 20
1.898065034671404
 10
-5.692943842421471
 20
1.898065034671404
 42
-0.414213562373095
 10
-6.442943842421471
 20
2.648065034671404
  0
SOLID
  5
1DC
330
49
100
AcDbEntity
  8
0
 62
     7
100
AcDbTrace
 10
1.412848266088645
 20
9.882600206260932
 30
0.0
 11
0.6628482660886448
 21
9.132600206260932
 31
0.0
 12
0.6884038963718436
 22
9.326714490087824
 32
0.0
 13
0.669264620058287
 23
9.23049485042597
 33
0.0
  0
SOLID
  5
1DD
330
49
100
AcDbEntity
  8
0
 62
     7
100
AcDbTrace
 10
1.412848266088645
 20
9.882600206260932
 30
0.0
 11
0.6884038963718436
 21
9.326714490087824
 31
0.0
 12
0.7633292132503158
 22
9.507600206260932
 32
0.0
 13
0.7199386167051798
 23
9.419612780534749
 33
0.0
  0
SOLID
  5
1DE
330
49
100
AcDbEntity
  8
0
 62
     7
100
AcDbTrace
 10
1.412848266088645
 20
9.882600206260932
 30
0.0
 11
0.7633292132503158
 21
9.507600206260932
 31
0.0
 12
0.8825181801987342
 22
9.662930292150843
 32
0.0
 13
0.8178332608702183
 23
9.589171278017472
 33
0.0
  0
SOLID
  5
1DF
330
49
100
AcDbEntity
  8
0
 62
     7
100
AcDbTrace
 10
1.412848266088645
 20
9.882600206260932
 30
0.0
 11
0.8825181801987342
 21
9.662930292150843
 31
0.0
 12
1.037848266088645
 22
9.782119259099261
 32
0.0
 13
0.9562771943321042
 23
9.727615211479359
 33
0.0
  0
SOLID
  5
1E0
330
49
100
AcDbEntity
  8
0
 62
     7
100
AcDbTrace
 10
1.412848266088645
 20
9.882600206260932
 30
0.0
 11
1.037848266088645
 21
9.782119259099261
 31
0.0
 12
1.218733982261754
 22
9.857044575977733
 32
0.0
 13
1.125835691814828
 23
9.825509855644396
 33
0.0
  0
SOLID
  5
1E1
330
49
100
AcDbEntity
  8
0
 62
     7
100
AcDbTrace
 10
1.412848266088645
 20
9.882600206260932
 30
0.0
 11
1.218733982261754
 21
9.857044575977733
 31
0.0
 12
1.412848266088645
 22
9.882600206260932
 32
0.0
 13
1.314953621923606
 23
9.87618385229129
 33
0.0
  0
SOLID
  5
1E2
330
49
100
AcDbEntity
  8
0
 62
     7
100
AcDbTrace
 10
6.412848266088645
 20
9.132600206260932
 30
0.0
 11
5.662848266088645
 21
9.882600206260932
 31
0.0
 12
5.856962549915536
 22
9.857044575977733
 32
0.0
 13
5.760742910253684
 23
9.87618385229129
 33
0.0
  0
SOLID
  5
1E3
330
49
100
AcDbEntity
  8
0
 62
     7
100
AcDbTrace
 10
6.412848266088645
 20
9.132600206260932
 30
0.0
 11
5.856962549915536
 21
9.857044575977733
 31
0.0
 12
6.037848266088645
 22
9.782119259099261
 32
0.0
 13
5.949860840362462
 23
9.825509855644396
 33
0.0
  0
SOLID
  5
1E4
330
49
100
AcDbEntity
  8
0
 62
     7
100
AcDbTrace
 10
6.412848266088645
 20
9.132600206260932
 30
0.0
 11
6.037848266088645
 21
9.782119259099261
 31
0.0
 12
6.193178351978555
 22
9.662930292150843
 32
0.0
 13
6.119419337845185
 23
9.727615211479359
 33
0.0
  0
SOLID
  5
1E5
330
49
100
AcDbEntity
  8
0
 62
     7
100
AcDbTrace
 10
6.412848266088645
 20
9.132600206260932
 30
0.0
 11
6.193178351978555
 21
9.662930292150843
 31
0.0
 12
6.312367318926974
 22
9.507600206260932
 32
0.0
 13
6.257863271307071
 23
9.589171278017472
 33
0.0
  0
SOLID
  5
1E6
330
49
100
AcDbEntity
  8
0
 62
     7
100
AcDbTrace
 10
6.412848266088645
 20
9.132600206260932
 30
0.0
 11
6.312367318926974
 21
9.507600206260932
 31
0.0
 12
6.387292635805446
 22
9.326714490087822
 32
0.0
 13
6.355757915472109
 23
9.419612780534749
 33
0.0
  0
SOLID
  5
1E7
330
49
100
AcDbEntity
  8
0
 62
     7
100
AcDbTrace
 10
6.412848266088645
 20
9.132600206260932
 30
0.0
 11
6.387292635805446
 21
9.326714490087822
 31
0.0
 12
6.412848266088645
 22
9.132600206260932
 32
0.0
 13
6.406431912119002
 23
9.23049485042597
 33
0.0
  0
SOLID
  5
1E8
330
49
100
AcDbEntity
  8
0
 62
     7
100
AcDbTrace
 10
5.662848266088645
 20
1.898065034671404
 30
0.0
 11
6.412848266088645
 21
2.648065034671404
 31
0.0
 12
6.387292635805446
 22
2.453950750844514
 32
0.0
 13
6.406431912119002
 23
2.550170390506366
 33
0.0
  0
SOLID
  5
1E9
330
49
100
AcDbEntity
  8
0
 62
     7
100
AcDbTrace
 10
5.662848266088645
 20
1.898065034671404
 30
0.0
 11
6.387292635805446
 21
2.453950750844514
 31
0.0
 12
6.312367318926974
 22
2.273065034671404
 32
0.0
 13
6.355757915472109
 23
2.361052460397587
 33
0.0
  0
SOLID
  5
1EA
330
49
100
AcDbEntity
  8
0
 62
     7
100
AcDbTrace
 10
5.662848266088645
 20
1.898065034671404
 30
0.0
 11
6.312367318926974
 21
2.273065034671404
 31
0.0
 12
6.193178351978555
 22
2.117734948781494
 32
0.0
 13
6.257863271307071
 23
2.191493962914864
 33
0.0
  0
SOLID
  5
1EB
330
49
100
AcDbEntity
  8
0
 62
     7
100
AcDbTrace
 10
5.662848266088645
 20
1.898065034671404
 30
0.0
 11
6.193178351978555
 21
2.117734948781494
 31
0.0
 12
6.037848266088645
 22
1.998545981833075
 32
0.0
 13
6.119419337845185
 23
2.053050029452978
 33
0.0
  0
SOLID
  5
1EC
330
49
100
AcDbEntity
  8
0
 62
     7
100
AcDbTrace
 10
5.662848266088645
 20
1.898065034671404
 30
0.0
 11
6.037848266088645
 21
1.998545981833075
 31
0.0
 12
5.856962549915536
 22
1.923620664954603
 32
0.0
 13
5.949860840362462
 23
1.955155385287939
 33
0.0
  0
SOLID
  5
1ED
330
49
100
AcDbEntity
  8
0
 62
     7
100
AcDbTrace
 10
5.662848266088645
 20
1.898065034671404
 30
0.0
 11
5.856962549915536
 21
1.923620664954603
 31
0.0
 12
5.662848266088645
 22
1.898065034671404
 32
0.0
 13
5.760742910253684
 23
1.904481388641047
 33
0.0
  0
SOLID
  5
1EE
330
49
100
AcDbEntity
  8
0
 62
     7
100
AcDbTrace
 10
0.6628482660886448
 20
2.648065034671404
 30
0.0
 11
1.412848266088645
 21
1.898065034671404
 31
0.0
 12
1.218733982261754
 22
1.923620664954603
 32
0.0
 13
1.314953621923606
 23
1.904481388641047
 33
0.0
  0
SOLID
  5
1EF
330
49
100
AcDbEntity
  8
0
 62
     7
100
AcDbTrace
 10
0.6628482660886448
 20
2.648065034671404
 30
0.0
 11
1.218733982261754
 21
1.923620664954603
 31
0.0
 12
1.037848266088644
 22
1.998545981833076
 32
0.0
 13
1.125835691814828
 23
1.955155385287939
 33
0.0
  0
SOLID
  5
1F0
330
49
100
AcDbEntity
  8
0
 62
     7
100
AcDbTrace
 10
0.6628482660886448
 20
2.648065034671404
 30
0.0
 11
1.037848266088644
 21
1.998545981833076
 31
0.0
 12
0.8825181801987341
 22
2.117734948781494
 32
0.0
 13
0.9562771943321041
 23
2.053050029452978
 33
0.0
  0
SOLID
  5
1F1
330
49
100
AcDbEntity
  8
0
 62
     7
100
AcDbTrace
 10
0.6628482660886448
 20
2.648065034671404
 30
0.0
 11
0.8825181801987341
 21
2.117734948781494
 31
0.0
 12
0.7633292132503158
 22
2.273065034671404
 32
0.0
 13
0.8178332608702183
 23
2.191493962914864
 33
0.0
  0
SOLID
  5
1F2
330
49
100
AcDbEntity
  8
0
 62
     7
100
AcDbTrace
 10
0.6628482660886448
 20
2.648065034671404
 30
0.0
 11
0.7633292132503158
 21
2.273065034671404
 31
0.0
 12
0.6884038963718435
 22
2.453950750844514
 32
0.0
 13
0.7199386167051796
 23
2.361052460397588
 33
0.0
  0
SOLID
  5
1F3
330
49
100
AcDbEntity
  8
0
 62
     7
100
AcDbTrace
 10
0.6628482660886448
 20
2.648065034671404
 30
0.0
 11
0.6884038963718435
 21
2.453950750844514
 31
0.0
 12
0.6628482660886448
 22
2.648065034671404
 32
0.0
 13
0.6692646200582869
 23
2.550170390506366
 33
0.0
  0
SOLID
  5
1F4
330
49
100
AcDbEntity
  8
0
 62
     7
100
AcDbTrace
 10
0.6628482660886448
 20
9.132600206260932
 30
0.0
 11
1.412848266088645
 21
9.882600206260932
 31
0.0
 12
6.412848266088645
 22
9.132600206260932
 32
0.0
 13
5.662848266088645
 23
9.882600206260932
 33
0.0
  0
SOLID
  5
1F5
330
49
100
AcDbEntity
  8
0
 62
     7
100
AcDbTrace
 10
0.6628482660886448
 20
9.132600206260932
 30
0.0
 11
6.412848266088645
 21
9.132600206260932
 31
0.0
 12
5.662848266088645
 22
1.898065034671404
 32
0.0
 13
6.412848266088645
 23
2.648065034671404
 33
0.0
  0
SOLID
  5
1F6
330
49
100
AcDbEntity
  8
0
 62
     7
100
AcDbTrace
 10
0.6628482660886448
 20
9.132600206260932
 30
0.0
 11
5.662848266088645
 21
1.898065034671404
 31
0.0
 12
0.6628482660886448
 22
2.648065034671404
 32
0.0
 13
1.412848266088645
 23
1.898065034671404
 33
0.0
  0
LWPOLYLINE
  5
1F7
330
49
100
AcDbEntity
  8
0
 62
     7
100
AcDbPolyline
 90
        8
 70
     1
 43
0.0
 10
0.6628482660886448
 20
9.132600206260932
 42
-0.414213562373095
 10
1.412848266088645
 20
9.882600206260932
 10
5.662848266088645
 20
9.882600206260932
 42
-0.414213562373095
 10
6.412848266088645
 20
9.132600206260932
 10
6.412848266088645
 20
2.648065034671404
 42
-0.414213562373095
 10
5.662848266088645
 20
1.898065034671404
 10
1.412848266088645
 20
1.898065034671404
 42
-0.414213562373095
 10
0.6628482660886448
 20
2.648065034671404
  0
ENDBLK
  5
1F9
330
49
100
AcDbEntity
  8
0
100
AcDbBlockEnd
  0
BLOCK
  5
220
330
21D
100
AcDbEntity
  8
0
100
AcDbBlockBegin
  2
block9_0
 70
     0
 10
0.0
 20
0.0
 30
0.0
  3
block9_0
  1

  0
SOLID
  5
21E
330
21D
100
AcDbEntity
  8
0
 62
   254
100
AcDbTrace
 10
3.687499999999943
 20
0.0
 30
0.0
 11
-3.687499999999936
 21
0.0
 31
0.0
 12
3.687499999999943
 22
0.375
 32
0.0
 13
-3.687499999999936
 23
0.375
 33
0.0
  0
LWPOLYLINE
  5
21F
330
21D
100
AcDbEntity
  8
0
 62
   251
100
AcDbPolyline
 90
        4
 70
     1
 43
0.0
 10
-3.687499999999936
 20
0.0
 10
-3.687499999999936
 20
0.375
 10
3.687499999999943
 20
0.375
 10
3.687499999999943
 20
0.0
  0
ENDBLK
  5
221
330
21D
100
AcDbEntity
  8
0
100
AcDbBlockEnd
  0
BLOCK
  5
259
330
24B
100
AcDbEntity
  8
0
100
AcDbBlockBegin
  2
block35_1
 70
     0
 10
0.0
 20
0.0
 30
0.0
  3
block35_1
  1

  0
SOLID
  5
24C
330
24B
100
AcDbEntity
  8
0
 62
     7
100
AcDbTrace
 10
-2.165420654478453
 20
11.38833587986255
 30
0.0
 11
-0.9238894089587575
 21
9.977601040287482
 31
0.0
 12
-2.165420654478453
 22
11.38833587986255
 32
0.0
 13
-3.55216053188235
 23
9.999144246213064
 33
0.0
  0
SOLID
  5
24D
330
24B
100
AcDbEntity
  8
0
 62
     7
100
AcDbTrace
 10
-0.9238894089587575
 20
9.977601040287482
 30
0.0
 11
-2.165420654478453
 21
11.38833587986255
 31
0.0
 12
2.29405656344511
 22
20.99095895392065
 32
0.0
 13
-2.152160075759298
 23
20.03351407291211
 33
0.0
  0
SOLID
  5
24E
330
24B
100
AcDbEntity
  8
0
 62
     7
100
AcDbTrace
 10
-0.9238894089587575
 20
9.977601040287482
 30
0.0
 11
2.29405656344511
 21
20.99095895392065
 31
0.0
 12
0.931777161761943
 22
10.95530735246791
 32
0.0
 13
2.305395815708607
 23
12.32892600641469
 33
0.0
  0
SOLID
  5
24F
330
24B
100
AcDbEntity
  8
0
 62
     7
100
AcDbTrace
 10
2.276013598511895
 20
9.691872013008947
 30
0.0
 11
0.9317771617619428
 21
10.95530735246791
 31
0.0
 12
2.276013598511895
 22
9.691872013008947
 32
0.0
 13
3.532103383671711
 23
10.94796179816876
 33
0.0
  0
SOLID
  5
250
330
24B
100
AcDbEntity
  8
0
 62
     7
100
AcDbTrace
 10
0.9317771617619428
 20
10.95530735246791
 30
0.0
 11
2.276013598511895
 21
9.691872013008947
 31
0.0
 12
-2.171759599618554
 22
0.0040937347157524
 32
0.0
 13
2.299405006502866
 23
0.959624880378783
 33
0.0
  0
SOLID
  5
251
330
24B
100
AcDbEntity
  8
0
 62
     7
100
AcDbTrace
 10
0.9317771617619428
 20
10.95530735246791
 30
0.0
 11
-2.171759599618554
 21
0.0040937347157524
 31
0.0
 12
-0.9238894089587575
 22
9.977601040287482
 32
0.0
 13
-2.173395352643752
 23
8.728095096602488
 33
0.0
  0
LWPOLYLINE
  5
252
330
24B
100
AcDbEntity
  8
0
 62
     7
100
AcDbPolyline
 90
       12
 70
     1
 43
0.0
 10
2.29405656344511
 20
20.99095895392065
 10
2.305395815708607
 20
12.32892600641469
 10
0.9317771617619428
 20
10.95530735246791
 10
3.532103383671711
 20
10.94796179816876
 10
2.276013598511895
 20
9.691872013008947
 10
2.299405006502866
 20
0.959624880378783
 10
-2.171759599618554
 20
0.0040937347157524
 10
-2.173395352643752
 20
8.728095096602488
 10
-0.9238894089587575
 20
9.977601040287482
 10
-3.55216053188235
 20
9.999144246213064
 10
-2.165420654478453
 20
11.38833587986255
 10
-2.152160075759298
 20
20.03351407291211
  0
INSERT
  5
257
330
24B
100
AcDbEntity
  8
0
  6
Continuous
370
     0
100
AcDbBlockReference
  2
Break_Line
 10
-2.241479588573725
 20
0.0
 30
0.0
1001
CHIEFARC-LNWT
1070
     0
  0
INSERT
  5
258
330
24B
100
AcDbEntity
  8
0
100
AcDbBlockReference
  2
Break_Line
 10
2.242375747515894
 20
0.9608261434477754
 30
0.0
  0
ENDBLK
  5
25A
330
24B
100
AcDbEntity
  8
0
100
AcDbBlockEnd
  0
BLOCK
  5
255
330
253
100
AcDbEntity
  8
0
100
AcDbBlockBegin
  2
Break_Line
 70
     0
 10
0.0
 20
0.0
 30
0.0
  3
Break_Line
  1

  0
LWPOLYLINE
  5
254
330
253
100
AcDbEntity
  8
0
100
AcDbPolyline
 90
        6
 70
     0
 43
0.0
 10
0.0758531737247452
 20
20.02936230674345
 10
0.0758531737247452
 20
11.37178725632516
 10
-1.309784784366492
 20
9.986149298233912
 10
1.309784784366492
 20
9.986149298233954
 10
0.0726287886091581
 20
8.74899330247662
 10
0.0726287886091583
 20
0.0000000000000284
  0
ENDBLK
  5
256
330
253
100
AcDbEntity
  8
0
100
AcDbBlockEnd
  0
BLOCK
  5
27F
330
276
100
AcDbEntity
  8
0
100
AcDbBlockBegin
  2
block34_1
 70
     0
 10
0.0
 20
0.0
 30
0.0
  3
block34_1
  1

  0
SOLID
  5
277
330
276
100
AcDbEntity
  8
0
 62
     7
100
AcDbTrace
 10
-2.155392080373076
 20
11.38833587986255
 30
0.0
 11
-0.9138608348533808
 21
9.977601040287482
 31
0.0
 12
-2.155392080373076
 22
11.38833587986255
 32
0.0
 13
-3.542131957776974
 23
9.999144246213064
 33
0.0
  0
SOLID
  5
278
330
276
100
AcDbEntity
  8
0
 62
     7
100
AcDbTrace
 10
-0.9138608348533808
 20
9.977601040287482
 30
0.0
 11
-2.155392080373076
 21
11.38833587986255
 31
0.0
 12
2.304085137550487
 22
20.99095895392065
 32
0.0
 13
-2.142131501653921
 23
20.03351407291211
 33
0.0
  0
SOLID
  5
279
330
276
100
AcDbEntity
  8
0
 62
     7
100
AcDbTrace
 10
-0.9138608348533808
 20
9.977601040287482
 30
0.0
 11
2.304085137550487
 21
20.99095895392065
 31
0.0
 12
0.9418057358673197
 22
10.95530735246791
 32
0.0
 13
2.315424389813984
 23
12.32892600641469
 33
0.0
  0
SOLID
  5
27A
330
276
100
AcDbEntity
  8
0
 62
     7
100
AcDbTrace
 10
2.286042172617272
 20
9.691872013008947
 30
0.0
 11
0.9418057358673195
 21
10.95530735246791
 31
0.0
 12
2.286042172617272
 22
9.691872013008947
 32
0.0
 13
3.542131957777087
 23
10.94796179816876
 33
0.0
  0
SOLID
  5
27B
330
276
100
AcDbEntity
  8
0
 62
     7
100
AcDbTrace
 10
0.9418057358673195
 20
10.95530735246791
 30
0.0
 11
2.286042172617272
 21
9.691872013008947
 31
0.0
 12
-2.161731025513177
 22
0.0040937347157524
 32
0.0
 13
2.309433580608243
 23
0.959624880378783
 33
0.0
  0
SOLID
  5
27C
330
276
100
AcDbEntity
  8
0
 62
     7
100
AcDbTrace
 10
0.9418057358673195
 20
10.95530735246791
 30
0.0
 11
-2.161731025513177
 21
0.0040937347157524
 31
0.0
 12
-0.9138608348533808
 22
9.977601040287482
 32
0.0
 13
-2.163366778538375
 23
8.728095096602488
 33
0.0
  0
LWPOLYLINE
  5
27D
330
276
100
AcDbEntity
  8
0
 62
     7
100
AcDbPolyline
 90
       12
 70
     1
 43
0.0
 10
2.304085137550487
 20
20.99095895392065
 10
2.315424389813984
 20
12.32892600641469
 10
0.9418057358673195
 20
10.95530735246791
 10
3.542131957777087
 20
10.94796179816876
 10
2.286042172617272
 20
9.691872013008947
 10
2.309433580608243
 20
0.959624880378783
 10
-2.161731025513177
 20
0.0040937347157524
 10
-2.163366778538375
 20
8.728095096602488
 10
-0.9138608348533808
 20
9.977601040287482
 10
-3.542131957776974
 20
9.999144246213064
 10
-2.155392080373076
 20
11.38833587986255
 10
-2.142131501653921
 20
20.03351407291211
  0
INSERT
  5
27E
330
276
100
AcDbEntity
  8
0
100
AcDbBlockReference
  2
Break_Line
 10
-2.231451014468348
 20
0.0
 30
0.0
  0
ENDBLK
  5
280
330
276
100
AcDbEntity
  8
0
100
AcDbBlockEnd
  0
ENDSEC
  0
SECTION
  2
ENTITIES
  0
SOLID
  5
3D
330
1F
100
AcDbEntity
  8
_DEFAULT_CAD_LAYER
 62
     7
100
AcDbTrace
 10
440.9082202937948
 20
620.4474841225338
 30
0.0
 11
440.9082202937948
 21
618.8263513150977
 31
0.0
 12
434.5684140543027
 22
620.4474841225338
 32
0.0
 13
434.5684140543027
 23
618.8263513150977
 33
0.0
  0
LINE
  5
3E
330
1F
100
AcDbEntity
  8
_DEFAULT_CAD_LAYER
 62
     7
100
AcDbLine
 10
440.9082202937948
 20
620.4474841225338
 30
0.0
 11
440.9082202937948
 21
618.8263513150977
 31
0.0
  0
LINE
  5
3F
330
1F
100
AcDbEntity
  8
_DEFAULT_CAD_LAYER
 62
     7
100
AcDbLine
 10
440.9082202937948
 20
618.8263513150977
 30
0.0
 11
434.5684140543027
 21
618.8263513150977
 31
0.0
  0
LINE
  5
40
330
1F
100
AcDbEntity
  8
_DEFAULT_CAD_LAYER
 62
     7
100
AcDbLine
 10
434.5684140543027
 20
618.8263513150977
 30
0.0
 11
434.5684140543027
 21
620.4474841225338
 31
0.0
  0
LINE
  5
41
330
1F
100
AcDbEntity
  8
_DEFAULT_CAD_LAYER
 62
     7
100
AcDbLine
 10
434.5684140543027
 20
620.4474841225338
 30
0.0
 11
440.9082202937948
 21
620.4474841225338
 31
0.0
  0
SOLID
  5
42
330
1F
100
AcDbEntity
  8
_DEFAULT_CAD_LAYER
 62
     7
100
AcDbTrace
 10
435.302675520166
 20
620.4474841225338
 30
0.0
 11
435.302675520166
 21
618.8263513150977
 31
0.0
 12
428.9628692806738
 22
620.4474841225338
 32
0.0
 13
428.9628692806738
 23
618.8263513150977
 33
0.0
  0
LINE
  5
43
330
1F
100
AcDbEntity
  8
_DEFAULT_CAD_LAYER
 62
     7
100
AcDbLine
 10
435.302675520166
 20
620.4474841225338
 30
0.0
 11
435.302675520166
 21
618.8263513150977
 31
0.0
  0
LINE
  5
44
330
1F
100
AcDbEntity
  8
_DEFAULT_CAD_LAYER
 62
     7
100
AcDbLine
 10
435.302675520166
 20
618.8263513150977
 30
0.0
 11
428.9628692806738
 21
618.8263513150977
 31
0.0
  0
LINE
  5
45
330
1F
100
AcDbEntity
  8
_DEFAULT_CAD_LAYER
 62
     7
100
AcDbLine
 10
428.9628692806738
 20
618.8263513150977
 30
0.0
 11
428.9628692806738
 21
620.4474841225338
 31
0.0
  0
LINE
  5
46
330
1F
100
AcDbEntity
  8
_DEFAULT_CAD_LAYER
 62
     7
100
AcDbLine
 10
428.9628692806738
 20
620.4474841225338
 30
0.0
 11
435.302675520166
 21
620.4474841225338
 31
0.0
  0
LWPOLYLINE
  5
48
330
1F
100
AcDbEntity
  8
_DEFAULT_CAD_LAYER
370
     9
100
AcDbPolyline
 90
       10
 70
     0
 43
0.0
 10
443.1706318668128
 20
622.8492656574397
 10
443.1706318668128
 20
623.3492656574397
 10
441.1706318668128
 20
623.3492656574397
 10
441.1706318668128
 20
621.9708859285729
 10
440.5562580064201
 20
621.9708859285729
 10
440.5562580064201
 20
620.6490600858831
 10
441.1520144771039
 20
620.6490600858831
 10
441.1520144771039
 20
618.8751806358723
 10
443.1520144771039
 20
618.8751806358722
 10
443.1520144771039
 20
619.3751806358722
1001
CHIEFARC-LNWT
1070
    10
  0
INSERT
  5
1FA
330
1F
100
AcDbEntity
  8
_DEFAULT_CAD_LAYER
  6
Continuous
370
     0
100
AcDbBlockReference
  2
block77
 10
451.2478334032546
 20
617.6352880849338
 30
0.0
 42
0.6664599875653169
1001
CHIEFARC-LNWT
1070
     0
  0
LINE
  5
1FB
330
1F
100
AcDbEntity
  8
_DEFAULT_CAD_LAYER
 62
   253
370
    13
100
AcDbLine
 10
458.7803839278689
 20
625.6575842878941
 30
0.0
 11
459.3612526899125
 21
626.2384530499378
 31
0.0
1001
CHIEFARC-LNWT
1070
    12
  0
LINE
  5
1FC
330
1F
100
AcDbEntity
  8
_DEFAULT_CAD_LAYER
 62
   253
370
    13
100
AcDbLine
 10
458.0732771466823
 20
625.6575842878941
 30
0.0
 11
459.3612526899125
 21
626.9455598311243
 31
0.0
1001
CHIEFARC-LNWT
1070
    12
  0
LINE
  5
1FD
330
1F
100
AcDbEntity
  8
_DEFAULT_CAD_LAYER
 62
   253
370
    13
100
AcDbLine
 10
457.3661703654959
 20
625.6575842878941
 30
0.0
 11
459.3612526899125
 21
627.6526666123108
 31
0.0
1001
CHIEFARC-LNWT
1070
    12
  0
LINE
  5
1FE
330
1F
100
AcDbEntity
  8
_DEFAULT_CAD_LAYER
 62
   253
370
    13
100
AcDbLine
 10
456.6590635843093
 20
625.6575842878941
 30
0.0
 11
458.6590635843093
 21
627.6575842878941
 31
0.0
1001
CHIEFARC-LNWT
1070
    12
  0
LINE
  5
1FF
330
1F
100
AcDbEntity
  8
_DEFAULT_CAD_LAYER
 62
   253
370
    13
100
AcDbLine
 10
455.9519568031227
 20
625.6575842878941
 30
0.0
 11
457.9519568031228
 21
627.6575842878941
 31
0.0
1001
CHIEFARC-LNWT
1070
    12
  0
LINE
  5
200
330
1F
100
AcDbEntity
  8
_DEFAULT_CAD_LAYER
 62
   253
370
    13
100
AcDbLine
 10
455.2448500219362
 20
625.6575842878941
 30
0.0
 11
457.2448500219362
 21
627.6575842878941
 31
0.0
1001
CHIEFARC-LNWT
1070
    12
  0
LINE
  5
201
330
1F
100
AcDbEntity
  8
_DEFAULT_CAD_LAYER
 62
   253
370
    13
100
AcDbLine
 10
454.5377432407496
 20
625.6575842878941
 30
0.0
 11
456.5377432407496
 21
627.6575842878941
 31
0.0
1001
CHIEFARC-LNWT
1070
    12
  0
LINE
  5
202
330
1F
100
AcDbEntity
  8
_DEFAULT_CAD_LAYER
 62
   253
370
    13
100
AcDbLine
 10
453.830636459563
 20
625.6575842878941
 30
0.0
 11
455.8306364595629
 21
627.6575842878941
 31
0.0
1001
CHIEFARC-LNWT
1070
    12
  0
LINE
  5
203
330
1F
100
AcDbEntity
  8
_DEFAULT_CAD_LAYER
 62
   253
370
    13
100
AcDbLine
 10
453.1235296783765
 20
625.6575842878941
 30
0.0
 11
455.1235296783765
 21
627.6575842878941
 31
0.0
1001
CHIEFARC-LNWT
1070
    12
  0
LINE
  5
204
330
1F
100
AcDbEntity
  8
_DEFAULT_CAD_LAYER
 62
   253
370
    13
100
AcDbLine
 10
452.41642289719
 20
625.6575842878941
 30
0.0
 11
454.41642289719
 21
627.6575842878941
 31
0.0
1001
CHIEFARC-LNWT
1070
    12
  0
LINE
  5
205
330
1F
100
AcDbEntity
  8
_DEFAULT_CAD_LAYER
 62
   253
370
    13
100
AcDbLine
 10
451.7093161160034
 20
625.6575842878941
 30
0.0
 11
453.7093161160035
 21
627.6575842878941
 31
0.0
1001
CHIEFARC-LNWT
1070
    12
  0
LINE
  5
206
330
1F
100
AcDbEntity
  8
_DEFAULT_CAD_LAYER
 62
   253
370
    13
100
AcDbLine
 10
451.0022093348169
 20
625.6575842878941
 30
0.0
 11
453.0022093348169
 21
627.6575842878941
 31
0.0
1001
CHIEFARC-LNWT
1070
    12
  0
LINE
  5
207
330
1F
100
AcDbEntity
  8
_DEFAULT_CAD_LAYER
 62
   253
370
    13
100
AcDbLine
 10
450.2951025536303
 20
625.6575842878941
 30
0.0
 11
452.2951025536303
 21
627.6575842878941
 31
0.0
1001
CHIEFARC-LNWT
1070
    12
  0
LINE
  5
208
330
1F
100
AcDbEntity
  8
_DEFAULT_CAD_LAYER
 62
   253
370
    13
100
AcDbLine
 10
449.5879957724438
 20
625.6575842878941
 30
0.0
 11
451.5879957724438
 21
627.6575842878941
 31
0.0
1001
CHIEFARC-LNWT
1070
    12
  0
LINE
  5
209
330
1F
100
AcDbEntity
  8
_DEFAULT_CAD_LAYER
 62
   253
370
    13
100
AcDbLine
 10
448.8808889912572
 20
625.6575842878941
 30
0.0
 11
450.8808889912572
 21
627.6575842878941
 31
0.0
1001
CHIEFARC-LNWT
1070
    12
  0
LINE
  5
20A
330
1F
100
AcDbEntity
  8
_DEFAULT_CAD_LAYER
 62
   253
370
    13
100
AcDbLine
 10
448.1737822100707
 20
625.6575842878941
 30
0.0
 11
450.1737822100707
 21
627.6575842878941
 31
0.0
1001
CHIEFARC-LNWT
1070
    12
  0
LINE
  5
20B
330
1F
100
AcDbEntity
  8
_DEFAULT_CAD_LAYER
 62
   253
370
    13
100
AcDbLine
 10
447.4666754288841
 20
625.6575842878941
 30
0.0
 11
449.4666754288841
 21
627.6575842878941
 31
0.0
1001
CHIEFARC-LNWT
1070
    12
  0
LINE
  5
20C
330
1F
100
AcDbEntity
  8
_DEFAULT_CAD_LAYER
 62
   253
370
    13
100
AcDbLine
 10
446.7595686476976
 20
625.6575842878941
 30
0.0
 11
448.7595686476976
 21
627.6575842878941
 31
0.0
1001
CHIEFARC-LNWT
1070
    12
  0
LINE
  5
20D
330
1F
100
AcDbEntity
  8
_DEFAULT_CAD_LAYER
 62
   253
370
    13
100
AcDbLine
 10
446.052461866511
 20
625.6575842878941
 30
0.0
 11
448.052461866511
 21
627.6575842878941
 31
0.0
1001
CHIEFARC-LNWT
1070
    12
  0
LINE
  5
20E
330
1F
100
AcDbEntity
  8
_DEFAULT_CAD_LAYER
 62
   253
370
    13
100
AcDbLine
 10
445.3453550853245
 20
625.6575842878941
 30
0.0
 11
447.3453550853245
 21
627.6575842878941
 31
0.0
1001
CHIEFARC-LNWT
1070
    12
  0
LINE
  5
20F
330
1F
100
AcDbEntity
  8
_DEFAULT_CAD_LAYER
 62
   253
370
    13
100
AcDbLine
 10
444.6382483041379
 20
625.6575842878941
 30
0.0
 11
446.6382483041379
 21
627.6575842878941
 31
0.0
1001
CHIEFARC-LNWT
1070
    12
  0
LINE
  5
210
330
1F
100
AcDbEntity
  8
_DEFAULT_CAD_LAYER
 62
   253
370
    13
100
AcDbLine
 10
443.9311415229515
 20
625.6575842878941
 30
0.0
 11
445.9311415229515
 21
627.6575842878941
 31
0.0
1001
CHIEFARC-LNWT
1070
    12
  0
LINE
  5
211
330
1F
100
AcDbEntity
  8
_DEFAULT_CAD_LAYER
 62
   253
370
    13
100
AcDbLine
 10
443.2675035776212
 20
625.7010531237505
 30
0.0
 11
445.2240347417648
 21
627.6575842878941
 31
0.0
1001
CHIEFARC-LNWT
1070
    12
  0
LINE
  5
212
330
1F
100
AcDbEntity
  8
_DEFAULT_CAD_LAYER
 62
   253
370
    13
100
AcDbLine
 10
443.2675035776212
 20
626.408159904937
 30
0.0
 11
444.5169279605784
 21
627.6575842878941
 31
0.0
1001
CHIEFARC-LNWT
1070
    12
  0
LINE
  5
213
330
1F
100
AcDbEntity
  8
_DEFAULT_CAD_LAYER
 62
   253
370
    13
100
AcDbLine
 10
443.2675035776212
 20
627.1152666861235
 30
0.0
 11
443.8098211793918
 21
627.6575842878941
 31
0.0
1001
CHIEFARC-LNWT
1070
    12
  0
LINE
  5
214
330
1F
100
AcDbEntity
  8
_DEFAULT_CAD_LAYER
 62
     7
370
    18
100
AcDbLine
 10
459.3612526899125
 20
627.6575842878941
 30
0.0
 11
459.3612526899125
 21
625.6575842878941
 31
0.0
  0
LINE
  5
215
330
1F
100
AcDbEntity
  8
_DEFAULT_CAD_LAYER
 62
     7
370
    18
100
AcDbLine
 10
459.3612526899125
 20
625.6575842878941
 30
0.0
 11
443.2675035776212
 21
625.6575842878941
 31
0.0
  0
LINE
  5
216
330
1F
100
AcDbEntity
  8
_DEFAULT_CAD_LAYER
 62
     7
370
    18
100
AcDbLine
 10
443.2675035776212
 20
625.6575842878941
 30
0.0
 11
443.2675035776212
 21
627.6575842878941
 31
0.0
  0
LINE
  5
217
330
1F
100
AcDbEntity
  8
_DEFAULT_CAD_LAYER
 62
     7
370
    18
100
AcDbLine
 10
443.2675035776212
 20
627.6575842878941
 30
0.0
 11
459.3612526899125
 21
627.6575842878941
 31
0.0
  0
LWPOLYLINE
  5
218
330
1F
100
AcDbEntity
  8
_DEFAULT_CAD_LAYER
100
AcDbPolyline
 90
       42
 70
     0
 43
0.0
 10
443.1649542460892
 20
625.6328079357176
 10
443.8985451088056
 20
625.6328079357176
 10
443.8985451088056
 20
625.8699925334511
 10
444.1479660021292
 20
625.8699925334511
 10
444.1479660021292
 20
625.6352434573818
 10
444.9255723166087
 20
625.6352434573818
 10
444.9255723166087
 20
625.8722816639481
 10
445.1603213926779
 20
625.8722816639481
 10
445.1603213926779
 20
625.6499152746361
 10
445.8792404381401
 20
625.6499152746361
 10
445.8792404381401
 20
625.879661632066
 10
446.1139895142093
 20
625.879661632066
 10
446.1139895142094
 20
625.6499152746361
 10
446.8329085596715
 20
625.6499152746361
 10
446.8329085596715
 20
625.8699925334511
 10
447.0676576357407
 20
625.8699925334511
 10
447.0676576357408
 20
625.6352434573818
 10
447.7865766812029
 20
625.6352434573818
 10
447.7865766812029
 20
625.8722816639481
 10
448.0213257572722
 20
625.8722816639481
 10
448.0213257572722
 20
625.6352434573818
 10
448.7549166199886
 20
625.6352434573818
 10
448.7549166199886
 20
625.8649016958303
 10
449.0043375133122
 20
625.8649016958303
 10
449.0043375133122
 20
625.6435026522947
 10
449.7963497165614
 20
625.6435026522947
 10
449.7963497165614
 20
625.8722816639482
 10
450.0607083556239
 20
625.8722816639481
 10
450.0607083556239
 20
625.6435026522946
 10
450.7796274010861
 20
625.6435026522947
 10
450.7796274010861
 20
625.8575217277125
 10
450.999704659901
 20
625.8575217277124
 10
450.999704659901
 20
625.6361226841768
 10
451.7479673398718
 20
625.6361226841768
 10
451.7479673398718
 20
625.8649016958303
 10
451.9973882331954
 20
625.8649016958303
 10
451.9973882331954
 20
625.64291193547
 10
452.7456509131662
 20
625.64291193547
 10
452.7456509131662
 20
625.8575217277125
 10
453.0244154409984
 20
625.8575217277124
 10
453.0244154409985
 20
625.6355319673521
 10
453.6406317656803
 20
625.6355319673521
  0
LWPOLYLINE
  5
219
330
1F
100
AcDbEntity
  8
_DEFAULT_CAD_LAYER
100
AcDbPolyline
 90
       42
 70
     0
 43
0.0
 10
453.0285626111134
 20
625.6718985383776
 10
453.7621534738299
 20
625.6718985383776
 10
453.7621534738299
 20
625.9090831361111
 10
454.0115743671535
 20
625.9090831361111
 10
454.0115743671535
 20
625.6743340600418
 10
454.7891806816329
 20
625.6743340600418
 10
454.7891806816329
 20
625.9113722666082
 10
455.0239297577021
 20
625.9113722666082
 10
455.0239297577021
 20
625.6890058772962
 10
455.7428488031643
 20
625.6890058772962
 10
455.7428488031643
 20
625.9187522347261
 10
455.9775978792335
 20
625.9187522347261
 10
455.9775978792336
 20
625.6890058772962
 10
456.6965169246957
 20
625.6890058772962
 10
456.6965169246957
 20
625.9090831361111
 10
456.9312660007649
 20
625.9090831361111
 10
456.931266000765
 20
625.6743340600418
 10
457.6501850462271
 20
625.6743340600418
 10
457.6501850462271
 20
625.9113722666082
 10
457.8849341222964
 20
625.9113722666082
 10
457.8849341222964
 20
625.6743340600418
 10
458.6185249850129
 20
625.6743340600418
 10
458.6185249850129
 20
625.9039922984904
 10
458.8679458783365
 20
625.9039922984904
 10
458.8679458783365
 20
625.6825932549548
 10
459.6599580815856
 20
625.6825932549548
 10
459.6599580815856
 20
625.9113722666083
 10
459.9243167206482
 20
625.9113722666082
 10
459.9243167206482
 20
625.6825932549547
 10
460.6432357661103
 20
625.6825932549548
 10
460.6432357661103
 20
625.8966123303726
 10
460.8633130249252
 20
625.8966123303726
 10
460.8633130249252
 20
625.675213286837
 10
461.611575704896
 20
625.6752132868369
 10
461.611575704896
 20
625.9039922984904
 10
460.3618145139444
 20
625.7341336946788
 10
461.2817876058595
 20
625.6746225700122
 10
460.6432357661103
 20
625.6825932549548
 10
460.3618145139444
 20
625.7341336946789
 10
460.6432357661103
 20
625.8966123303725
 10
460.8633130249252
 20
625.675213286837
 10
461.2817876058595
 20
625.6746225700122
  0
LWPOLYLINE
  5
21A
330
1F
100
AcDbEntity
  8
_DEFAULT_CAD_LAYER
 62
   174
370
     9
100
AcDbPolyline
 90
        3
 70
     0
 43
0.0
 10
442.2396690828172
 20
623.5107618427946
 10
442.2396690828172
 20
627.7502281137113
 10
459.4102386554486
 20
627.7502281137113
1001
CHIEFARC-LNWT
1070
    10
  0
LWPOLYLINE
  5
21B
330
1F
100
AcDbEntity
  8
_DEFAULT_CAD_LAYER
370
     9
100
AcDbPolyline
 90
       10
 70
     0
 43
0.0
 10
426.7004577076559
 20
622.8492656574397
 10
426.7004577076559
 20
623.3492656574397
 10
428.7004577076559
 20
623.3492656574397
 10
428.7004577076559
 20
621.9708859285729
 10
429.3148315680485
 20
621.9708859285729
 10
429.3148315680485
 20
620.6490600858831
 10
428.7190750973647
 20
620.6490600858831
 10
428.7190750973647
 20
618.8751806358723
 10
426.7190750973647
 20
618.8751806358722
 10
426.7190750973647
 20
619.3751806358722
1001
CHIEFARC-LNWT
1070
    10
  0
LWPOLYLINE
  5
21C
330
1F
100
AcDbEntity
  8
_DEFAULT_CAD_LAYER
370
    15
100
AcDbPolyline
 90
        3
 70
     0
 43
0.0
 10
442.0419786860896
 20
626.6861014681598
 10
442.0419786860896
 20
627.9361014681598
 10
443.2919786860896
 20
627.9361014681598
  0
INSERT
  5
222
330
1F
100
AcDbEntity
  8
_DEFAULT_CAD_LAYER
  6
Continuous
370
     0
100
AcDbBlockReference
  2
block9_0
 10
459.5887617922702
 20
621.259143110267
 30
0.0
 41
1.542372881355957
 50
90.0
1001
CHIEFARC-LNWT
1070
     0
  0
SOLID
  5
223
330
1F
100
AcDbEntity
  8
_DEFAULT_CAD_LAYER
 62
    33
100
AcDbTrace
 10
443.1706318668128
 20
627.6236014681598
 30
0.0
 11
443.1706318668128
 21
623.451550277478
 31
0.0
 12
442.4206318668128
 22
627.6236014681598
 32
0.0
 13
442.4206318668128
 23
623.451550277478
 33
0.0
  0
LINE
  5
224
330
1F
100
AcDbEntity
  8
_DEFAULT_CAD_LAYER
 62
     7
100
AcDbLine
 10
443.1706318668128
 20
627.6236014681598
 30
0.0
 11
443.1706318668128
 21
623.451550277478
 31
0.0
  0
LINE
  5
225
330
1F
100
AcDbEntity
  8
_DEFAULT_CAD_LAYER
 62
     7
100
AcDbLine
 10
443.1706318668128
 20
623.451550277478
 30
0.0
 11
442.4206318668128
 21
623.451550277478
 31
0.0
  0
LINE
  5
226
330
1F
100
AcDbEntity
  8
_DEFAULT_CAD_LAYER
 62
     7
100
AcDbLine
 10
442.4206318668128
 20
623.451550277478
 30
0.0
 11
442.4206318668128
 21
627.6236014681598
 31
0.0
  0
LINE
  5
227
330
1F
100
AcDbEntity
  8
_DEFAULT_CAD_LAYER
 62
     7
100
AcDbLine
 10
442.4206318668128
 20
627.6236014681598
 30
0.0
 11
443.1706318668128
 21
627.6236014681598
 31
0.0
  0
INSERT
  5
228
330
1F
100
AcDbEntity
  8
_DEFAULT_CAD_LAYER
100
AcDbBlockReference
  2
block77
 10
418.5824410714963
 20
617.6352880849338
 30
0.0
 41
-1.0
 42
0.6664599875653169
  0
LWPOLYLINE
  5
229
330
1F
100
AcDbEntity
  8
_DEFAULT_CAD_LAYER
100
AcDbPolyline
 90
       42
 70
     0
 43
0.0
 10
426.6865753786649
 20
625.6328079357176
 10
425.9529845159484
 20
625.6328079357176
 10
425.9529845159484
 20
625.8699925334511
 10
425.7035636226248
 20
625.8699925334511
 10
425.7035636226248
 20
625.6352434573818
 10
424.9259573081454
 20
625.6352434573818
 10
424.9259573081454
 20
625.8722816639481
 10
424.6912082320761
 20
625.8722816639481
 10
424.6912082320761
 20
625.6499152746361
 10
423.972289186614
 20
625.6499152746361
 10
423.972289186614
 20
625.879661632066
 10
423.7375401105447
 20
625.879661632066
 10
423.7375401105447
 20
625.6499152746361
 10
423.0186210650825
 20
625.6499152746361
 10
423.0186210650826
 20
625.8699925334511
 10
422.7838719890133
 20
625.8699925334511
 10
422.7838719890133
 20
625.6352434573818
 10
422.0649529435511
 20
625.6352434573818
 10
422.0649529435511
 20
625.8722816639481
 10
421.8302038674819
 20
625.8722816639481
 10
421.8302038674819
 20
625.6352434573818
 10
421.0966130047654
 20
625.6352434573818
 10
421.0966130047654
 20
625.8649016958303
 10
420.8471921114418
 20
625.8649016958303
 10
420.8471921114418
 20
625.6435026522947
 10
420.0551799081927
 20
625.6435026522947
 10
420.0551799081927
 20
625.8722816639482
 10
419.7908212691301
 20
625.8722816639481
 10
419.7908212691301
 20
625.6435026522946
 10
419.071902223668
 20
625.6435026522947
 10
419.071902223668
 20
625.8575217277125
 10
418.851824964853
 20
625.8575217277124
 10
418.8518249648531
 20
625.6361226841768
 10
418.1035622848822
 20
625.6361226841768
 10
418.1035622848822
 20
625.8649016958303
 10
417.8541413915586
 20
625.8649016958303
 10
417.8541413915586
 20
625.64291193547
 10
417.1058787115878
 20
625.64291193547
 10
417.1058787115879
 20
625.8575217277125
 10
416.8271141837556
 20
625.8575217277124
 10
416.8271141837556
 20
625.6355319673521
 10
416.2108978590737
 20
625.6355319673521
  0
LINE
  5
22A
330
1F
100
AcDbEntity
  8
_DEFAULT_CAD_LAYER
 62
   253
370
    13
100
AcDbLine
 10
426.2534719932877
 20
625.6575842878941
 30
0.0
 11
426.5840260471329
 21
625.9881383417393
 31
0.0
1001
CHIEFARC-LNWT
1070
    12
  0
LINE
  5
22B
330
1F
100
AcDbEntity
  8
_DEFAULT_CAD_LAYER
 62
   253
370
    13
100
AcDbLine
 10
425.5463652121012
 20
625.6575842878941
 30
0.0
 11
426.5840260471329
 21
626.6952451229257
 31
0.0
1001
CHIEFARC-LNWT
1070
    12
  0
LINE
  5
22C
330
1F
100
AcDbEntity
  8
_DEFAULT_CAD_LAYER
 62
   253
370
    13
100
AcDbLine
 10
424.8392584309146
 20
625.6575842878941
 30
0.0
 11
426.5840260471329
 21
627.4023519041124
 31
0.0
1001
CHIEFARC-LNWT
1070
    12
  0
LINE
  5
22D
330
1F
100
AcDbEntity
  8
_DEFAULT_CAD_LAYER
 62
   253
370
    13
100
AcDbLine
 10
424.1321516497281
 20
625.6575842878941
 30
0.0
 11
426.1321516497281
 21
627.6575842878941
 31
0.0
1001
CHIEFARC-LNWT
1070
    12
  0
LINE
  5
22E
330
1F
100
AcDbEntity
  8
_DEFAULT_CAD_LAYER
 62
   253
370
    13
100
AcDbLine
 10
423.4250448685415
 20
625.6575842878941
 30
0.0
 11
425.4250448685415
 21
627.6575842878941
 31
0.0
1001
CHIEFARC-LNWT
1070
    12
  0
LINE
  5
22F
330
1F
100
AcDbEntity
  8
_DEFAULT_CAD_LAYER
 62
   253
370
    13
100
AcDbLine
 10
422.717938087355
 20
625.6575842878941
 30
0.0
 11
424.717938087355
 21
627.6575842878941
 31
0.0
1001
CHIEFARC-LNWT
1070
    12
  0
LINE
  5
230
330
1F
100
AcDbEntity
  8
_DEFAULT_CAD_LAYER
 62
   253
370
    13
100
AcDbLine
 10
422.0108313061683
 20
625.6575842878941
 30
0.0
 11
424.0108313061684
 21
627.6575842878941
 31
0.0
1001
CHIEFARC-LNWT
1070
    12
  0
LINE
  5
231
330
1F
100
AcDbEntity
  8
_DEFAULT_CAD_LAYER
 62
   253
370
    13
100
AcDbLine
 10
421.3037245249819
 20
625.6575842878941
 30
0.0
 11
423.3037245249819
 21
627.6575842878941
 31
0.0
1001
CHIEFARC-LNWT
1070
    12
  0
LINE
  5
232
330
1F
100
AcDbEntity
  8
_DEFAULT_CAD_LAYER
 62
   253
370
    13
100
AcDbLine
 10
420.5966177437952
 20
625.6575842878941
 30
0.0
 11
422.5966177437953
 21
627.6575842878941
 31
0.0
1001
CHIEFARC-LNWT
1070
    12
  0
LINE
  5
233
330
1F
100
AcDbEntity
  8
_DEFAULT_CAD_LAYER
 62
   253
370
    13
100
AcDbLine
 10
419.8895109626088
 20
625.6575842878941
 30
0.0
 11
421.8895109626088
 21
627.6575842878941
 31
0.0
1001
CHIEFARC-LNWT
1070
    12
  0
LINE
  5
234
330
1F
100
AcDbEntity
  8
_DEFAULT_CAD_LAYER
 62
   253
370
    13
100
AcDbLine
 10
419.1824041814222
 20
625.6575842878941
 30
0.0
 11
421.1824041814222
 21
627.6575842878941
 31
0.0
1001
CHIEFARC-LNWT
1070
    12
  0
LINE
  5
235
330
1F
100
AcDbEntity
  8
_DEFAULT_CAD_LAYER
 62
   253
370
    13
100
AcDbLine
 10
418.4752974002357
 20
625.6575842878941
 30
0.0
 11
420.4752974002357
 21
627.6575842878941
 31
0.0
1001
CHIEFARC-LNWT
1070
    12
  0
LINE
  5
236
330
1F
100
AcDbEntity
  8
_DEFAULT_CAD_LAYER
 62
   253
370
    13
100
AcDbLine
 10
417.7681906190492
 20
625.6575842878941
 30
0.0
 11
419.7681906190492
 21
627.6575842878941
 31
0.0
1001
CHIEFARC-LNWT
1070
    12
  0
LINE
  5
237
330
1F
100
AcDbEntity
  8
_DEFAULT_CAD_LAYER
 62
   253
370
    13
100
AcDbLine
 10
417.0610838378627
 20
625.6575842878941
 30
0.0
 11
419.0610838378626
 21
627.6575842878941
 31
0.0
1001
CHIEFARC-LNWT
1070
    12
  0
LINE
  5
238
330
1F
100
AcDbEntity
  8
_DEFAULT_CAD_LAYER
 62
   253
370
    13
100
AcDbLine
 10
416.3539770566759
 20
625.6575842878941
 30
0.0
 11
418.3539770566759
 21
627.6575842878941
 31
0.0
1001
CHIEFARC-LNWT
1070
    12
  0
LINE
  5
239
330
1F
100
AcDbEntity
  8
_DEFAULT_CAD_LAYER
 62
   253
370
    13
100
AcDbLine
 10
415.6468702754896
 20
625.6575842878941
 30
0.0
 11
417.6468702754894
 21
627.6575842878941
 31
0.0
1001
CHIEFARC-LNWT
1070
    12
  0
LINE
  5
23A
330
1F
100
AcDbEntity
  8
_DEFAULT_CAD_LAYER
 62
   253
370
    13
100
AcDbLine
 10
414.939763494303
 20
625.6575842878941
 30
0.0
 11
416.939763494303
 21
627.6575842878941
 31
0.0
1001
CHIEFARC-LNWT
1070
    12
  0
LINE
  5
23B
330
1F
100
AcDbEntity
  8
_DEFAULT_CAD_LAYER
 62
   253
370
    13
100
AcDbLine
 10
414.2326567131164
 20
625.6575842878941
 30
0.0
 11
416.2326567131164
 21
627.6575842878941
 31
0.0
1001
CHIEFARC-LNWT
1070
    12
  0
LINE
  5
23C
330
1F
100
AcDbEntity
  8
_DEFAULT_CAD_LAYER
 62
   253
370
    13
100
AcDbLine
 10
413.5255499319298
 20
625.6575842878941
 30
0.0
 11
415.5255499319299
 21
627.6575842878941
 31
0.0
1001
CHIEFARC-LNWT
1070
    12
  0
LINE
  5
23D
330
1F
100
AcDbEntity
  8
_DEFAULT_CAD_LAYER
 62
   253
370
    13
100
AcDbLine
 10
412.8184431507433
 20
625.6575842878941
 30
0.0
 11
414.8184431507433
 21
627.6575842878941
 31
0.0
1001
CHIEFARC-LNWT
1070
    12
  0
LINE
  5
23E
330
1F
100
AcDbEntity
  8
_DEFAULT_CAD_LAYER
 62
   253
370
    13
100
AcDbLine
 10
412.1113363695568
 20
625.6575842878941
 30
0.0
 11
414.1113363695569
 21
627.6575842878941
 31
0.0
1001
CHIEFARC-LNWT
1070
    12
  0
LINE
  5
23F
330
1F
100
AcDbEntity
  8
_DEFAULT_CAD_LAYER
 62
   253
370
    13
100
AcDbLine
 10
411.4042295883702
 20
625.6575842878941
 30
0.0
 11
413.4042295883702
 21
627.6575842878941
 31
0.0
1001
CHIEFARC-LNWT
1070
    12
  0
LINE
  5
240
330
1F
100
AcDbEntity
  8
_DEFAULT_CAD_LAYER
 62
   253
370
    13
100
AcDbLine
 10
410.6971228071837
 20
625.6575842878941
 30
0.0
 11
412.6971228071838
 21
627.6575842878941
 31
0.0
1001
CHIEFARC-LNWT
1070
    12
  0
LINE
  5
241
330
1F
100
AcDbEntity
  8
_DEFAULT_CAD_LAYER
 62
   253
370
    13
100
AcDbLine
 10
410.4902769348415
 20
626.1578451967385
 30
0.0
 11
411.9900160259971
 21
627.6575842878941
 31
0.0
1001
CHIEFARC-LNWT
1070
    12
  0
LINE
  5
242
330
1F
100
AcDbEntity
  8
_DEFAULT_CAD_LAYER
 62
   253
370
    13
100
AcDbLine
 10
410.4902769348415
 20
626.864951977925
 30
0.0
 11
411.2829092448106
 21
627.6575842878941
 31
0.0
1001
CHIEFARC-LNWT
1070
    12
  0
LINE
  5
243
330
1F
100
AcDbEntity
  8
_DEFAULT_CAD_LAYER
 62
   253
370
    13
100
AcDbLine
 10
410.4902769348415
 20
627.5720587591117
 30
0.0
 11
410.575802463624
 21
627.6575842878941
 31
0.0
1001
CHIEFARC-LNWT
1070
    12
  0
LINE
  5
244
330
1F
100
AcDbEntity
  8
_DEFAULT_CAD_LAYER
 62
     7
370
    18
100
AcDbLine
 10
426.5840260471329
 20
627.6575842878941
 30
0.0
 11
426.5840260471329
 21
625.6575842878941
 31
0.0
  0
LINE
  5
245
330
1F
100
AcDbEntity
  8
_DEFAULT_CAD_LAYER
 62
     7
370
    18
100
AcDbLine
 10
426.5840260471329
 20
625.6575842878941
 30
0.0
 11
410.4902769348415
 21
625.6575842878941
 31
0.0
  0
LINE
  5
246
330
1F
100
AcDbEntity
  8
_DEFAULT_CAD_LAYER
 62
     7
370
    18
100
AcDbLine
 10
410.4902769348415
 20
625.6575842878941
 30
0.0
 11
410.4902769348415
 21
627.6575842878941
 31
0.0
  0
LINE
  5
247
330
1F
100
AcDbEntity
  8
_DEFAULT_CAD_LAYER
 62
     7
370
    18
100
AcDbLine
 10
410.4902769348415
 20
627.6575842878941
 30
0.0
 11
426.5840260471329
 21
627.6575842878941
 31
0.0
  0
LWPOLYLINE
  5
248
330
1F
100
AcDbEntity
  8
_DEFAULT_CAD_LAYER
100
AcDbPolyline
 90
       42
 70
     0
 43
0.0
 10
416.8229670136407
 20
625.6718985383776
 10
416.0893761509242
 20
625.6718985383776
 10
416.0893761509242
 20
625.9090831361111
 10
415.8399552576006
 20
625.9090831361111
 10
415.8399552576006
 20
625.6743340600418
 10
415.0623489431212
 20
625.6743340600418
 10
415.0623489431212
 20
625.9113722666082
 10
414.8275998670519
 20
625.9113722666082
 10
414.8275998670519
 20
625.6890058772962
 10
414.1086808215898
 20
625.6890058772962
 10
414.1086808215898
 20
625.9187522347261
 10
413.8739317455205
 20
625.9187522347261
 10
413.8739317455205
 20
625.6890058772962
 10
413.1550127000583
 20
625.6890058772962
 10
413.1550127000584
 20
625.9090831361111
 10
412.9202636239891
 20
625.9090831361111
 10
412.9202636239891
 20
625.6743340600418
 10
412.2013445785269
 20
625.6743340600418
 10
412.2013445785269
 20
625.9113722666082
 10
411.9665955024577
 20
625.9113722666082
 10
411.9665955024577
 20
625.6743340600418
 10
411.2330046397412
 20
625.6743340600418
 10
411.2330046397412
 20
625.9039922984904
 10
410.9835837464176
 20
625.9039922984904
 10
410.9835837464176
 20
625.6825932549548
 10
410.1915715431684
 20
625.6825932549548
 10
410.1915715431684
 20
625.9113722666083
 10
409.9272129041059
 20
625.9113722666082
 10
409.9272129041059
 20
625.6825932549547
 10
409.2082938586437
 20
625.6825932549548
 10
409.2082938586437
 20
625.8966123303726
 10
408.9882165998288
 20
625.8966123303726
 10
408.9882165998288
 20
625.675213286837
 10
408.239953919858
 20
625.6752132868369
 10
408.239953919858
 20
625.9039922984904
 10
409.4897151108097
 20
625.7341336946788
 10
408.5697420188945
 20
625.6746225700122
 10
409.2082938586437
 20
625.6825932549548
 10
409.4897151108096
 20
625.7341336946789
 10
409.2082938586437
 20
625.8966123303725
 10
408.9882165998288
 20
625.675213286837
 10
408.5697420188945
 20
625.6746225700122
  0
LWPOLYLINE
  5
249
330
1F
100
AcDbEntity
  8
_DEFAULT_CAD_LAYER
370
    15
100
AcDbPolyline
 90
        3
 70
     0
 43
0.0
 10
427.7433977579413
 20
626.6861014681598
 10
427.7433977579413
 20
627.9361014681598
 10
426.4933977579413
 20
627.9361014681598
  0
LWPOLYLINE
  5
24A
330
1F
100
AcDbEntity
  8
_DEFAULT_CAD_LAYER
 62
   174
370
     9
100
AcDbPolyline
 90
        3
 70
     0
 43
0.0
 10
427.6043805948372
 20
623.5107618427946
 10
427.6043805948372
 20
627.7502281137113
 10
410.4412909693054
 20
627.7502281137113
1001
CHIEFARC-LNWT
1070
    10
  0
INSERT
  5
25B
330
1F
100
AcDbEntity
  8
_DEFAULT_CAD_LAYER
  6
Continuous
370
     0
100
AcDbBlockReference
  2
block35_1
 10
434.7045315232842
 20
612.1029346554649
 30
0.0
 41
0.7086279911767028
 42
0.7086279911767028
1001
CHIEFARC-LNWT
1070
     0
  0
INSERT
  5
25C
330
1F
100
AcDbEntity
  8
_DEFAULT_CAD_LAYER
100
AcDbBlockReference
  2
block9_0
 10
410.2415126824806
 20
621.259143110267
 30
0.0
 41
-1.542372881355957
 50
-90.0
  0
SOLID
  5
25D
330
1F
100
AcDbEntity
  8
_DEFAULT_CAD_LAYER
 62
    33
100
AcDbTrace
 10
427.4308977579413
 20
627.6236014681598
 30
0.0
 11
427.4308977579413
 21
623.451550277478
 31
0.0
 12
426.6808977579413
 22
627.6236014681598
 32
0.0
 13
426.6808977579413
 23
623.451550277478
 33
0.0
  0
LINE
  5
25E
330
1F
100
AcDbEntity
  8
_DEFAULT_CAD_LAYER
 62
     7
100
AcDbLine
 10
427.4308977579413
 20
627.6236014681598
 30
0.0
 11
427.4308977579413
 21
623.451550277478
 31
0.0
  0
LINE
  5
25F
330
1F
100
AcDbEntity
  8
_DEFAULT_CAD_LAYER
 62
     7
100
AcDbLine
 10
427.4308977579413
 20
623.451550277478
 30
0.0
 11
426.6808977579413
 21
623.451550277478
 31
0.0
  0
LINE
  5
260
330
1F
100
AcDbEntity
  8
_DEFAULT_CAD_LAYER
 62
     7
100
AcDbLine
 10
426.6808977579413
 20
623.451550277478
 30
0.0
 11
426.6808977579413
 21
627.6236014681598
 31
0.0
  0
LINE
  5
261
330
1F
100
AcDbEntity
  8
_DEFAULT_CAD_LAYER
 62
     7
100
AcDbLine
 10
426.6808977579413
 20
627.6236014681598
 30
0.0
 11
427.4308977579413
 21
627.6236014681598
 31
0.0
  0
LWPOLYLINE
  5
262
330
1F
100
AcDbEntity
  8
_DEFAULT_CAD_LAYER
100
AcDbPolyline
 90
       42
 70
     0
 43
0.0
 10
416.1049023116053
 20
625.6328079357176
 10
416.8384931743218
 20
625.6328079357176
 10
416.8384931743218
 20
625.8699925334511
 10
417.0879140676454
 20
625.869992533451
 10
417.0879140676454
 20
625.6352434573816
 10
417.8655203821248
 20
625.6352434573818
 10
417.8655203821248
 20
625.8722816639481
 10
418.1002694581941
 20
625.8722816639481
 10
418.1002694581941
 20
625.6499152746361
 10
418.8191885036562
 20
625.6499152746361
 10
418.8191885036562
 20
625.879661632066
 10
419.0539375797255
 20
625.879661632066
 10
419.0539375797255
 20
625.6499152746361
 10
419.7728566251877
 20
625.6499152746361
 10
419.7728566251876
 20
625.8699925334511
 10
420.0076057012569
 20
625.869992533451
 10
420.0076057012569
 20
625.6352434573816
 10
420.7265247467191
 20
625.6352434573818
 10
420.7265247467191
 20
625.8722816639481
 10
420.9612738227883
 20
625.8722816639481
 10
420.9612738227883
 20
625.6352434573818
 10
421.6948646855048
 20
625.6352434573818
 10
421.6948646855048
 20
625.8649016958303
 10
421.9442855788284
 20
625.8649016958303
 10
421.9442855788284
 20
625.6435026522947
 10
422.7362977820775
 20
625.6435026522946
 10
422.7362977820775
 20
625.8722816639481
 10
423.0006564211401
 20
625.8722816639481
 10
423.0006564211401
 20
625.6435026522946
 10
423.7195754666022
 20
625.6435026522946
 10
423.7195754666022
 20
625.8575217277124
 10
423.9396527254172
 20
625.8575217277124
 10
423.9396527254171
 20
625.6361226841768
 10
424.687915405388
 20
625.6361226841768
 10
424.687915405388
 20
625.8649016958303
 10
424.9373362987116
 20
625.8649016958303
 10
424.9373362987116
 20
625.64291193547
 10
425.6855989786824
 20
625.6429119354699
 10
425.6855989786823
 20
625.8575217277124
 10
425.9643635065146
 20
625.8575217277124
 10
425.9643635065146
 20
625.6355319673521
 10
426.5805798311965
 20
625.6355319673521
  0
MTEXT
  5
266
330
1F
100
AcDbEntity
  8
Text
 62
   156
370
     9
100
AcDbMText
 10
459.8614348793136
 20
612.3190869770032
 30
0.0
 40
1.0
 41
16.6
 46
0.0
 71
     7
 72
     1
  1
\fArial|b0|i0|c0|p0;CMU MASONRY BLOCK
 73
     1
 44
1.0
1001
CHIEFARC-LNWT
1070
    10
1001
CHIEFARC_RTFBINARY
1000

1001
CHIEFARC_SIMPLE_TEXT_BINARY
1000

1001
CHIEFARC-WIDTHEXPANDED
1070
     1
1001
CHIEFARC_AUTOHEIGHT
1070
     1
1001
CHIEFARC_AUTOWIDTH
1070
     1
  0
MTEXT
  5
26C
330
1F
100
AcDbEntity
  8
Text
 62
   156
370
     9
100
AcDbMText
 10
459.8614348793136
 20
630.5546755595533
 30
0.0
 40
1.0
 41
17.7
 46
0.0
 71
     7
 72
     1
  1
\fArial|b0|i0|c0|p0;DRAIN & DRY CHANNELS
 73
     1
 44
1.0
1001
CHIEFARC-LNWT
1070
    10
1001
CHIEFARC_RTFBINARY
1000

1001
CHIEFARC_SIMPLE_TEXT_BINARY
1000

1001
CHIEFARC-WIDTHEXPANDED
1070
     1
1001
CHIEFARC_AUTOHEIGHT
1070
     1
1001
CHIEFARC_AUTOWIDTH
1070
     1
  0
MTEXT
  5
26D
330
1F
100
AcDbEntity
  8
Text
 62
   156
370
     9
100
AcDbMText
 10
459.7948536395662
 20
634.0120636179599
 30
0.0
 40
1.0
 41
12.55
 46
0.0
 71
     7
 72
     1
  1
\fArial|b0|i0|c0|p0;INSOFAST PANEL
 73
     1
 44
1.0
1001
CHIEFARC-LNWT
1070
    10
1001
CHIEFARC_RTFBINARY
1000

1001
CHIEFARC_SIMPLE_TEXT_BINARY
1000

1001
CHIEFARC-WIDTHEXPANDED
1070
     1
1001
CHIEFARC_AUTOHEIGHT
1070
     1
1001
CHIEFARC_AUTOWIDTH
1070
     1
  0
MTEXT
  5
26E
330
1F
100
AcDbEntity
  8
Text
 62
   156
370
     9
100
AcDbMText
 10
459.8614348793136
 20
642.0282602067247
 30
0.0
 40
1.0
 41
9.69
 46
0.0
 71
     7
 72
     1
  1
\fArial|b0|i0|c0|p0;FRP RETURN
 73
     1
 44
1.0
1001
CHIEFARC-LNWT
1070
    10
1001
CHIEFARC_RTFBINARY
1000

1001
CHIEFARC_SIMPLE_TEXT_BINARY
1000

1001
CHIEFARC-WIDTHEXPANDED
1070
     1
1001
CHIEFARC_AUTOHEIGHT
1070
     1
1001
CHIEFARC_AUTOWIDTH
1070
     1
  0
MTEXT
  5
26F
330
1F
100
AcDbEntity
  8
Text
 62
   156
370
     9
100
AcDbMText
 10
459.8614348793136
 20
645.687828214639
 30
0.0
 40
1.0
 41
10.73
 46
0.0
 71
     7
 72
     1
  1
\fArial|b0|i0|c0|p0;3/4" PLYWOOD
 73
     1
 44
1.0
1001
CHIEFARC-LNWT
1070
    10
1001
CHIEFARC_RTFBINARY
1000

1001
CHIEFARC_SIMPLE_TEXT_BINARY
1000

1001
CHIEFARC-WIDTHEXPANDED
1070
     1
1001
CHIEFARC_AUTOHEIGHT
1070
     1
1001
CHIEFARC_AUTOWIDTH
1070
     1
  0
MTEXT
  5
270
330
1F
100
AcDbEntity
  8
Text
 62
   156
370
     9
100
AcDbMText
 10
459.8614348793136
 20
608.3968821196645
 30
0.0
 40
1.0
 41
13.81
 46
0.0
 71
     7
 72
     1
  1
\fArial|b0|i0|c0|p0;STEEL DOOR JAMB
 73
     1
 44
1.0
1001
CHIEFARC-LNWT
1070
    10
1001
CHIEFARC_RTFBINARY
1000

1001
CHIEFARC_SIMPLE_TEXT_BINARY
1000

1001
CHIEFARC-WIDTHEXPANDED
1070
     1
1001
CHIEFARC_AUTOHEIGHT
1070
     1
1001
CHIEFARC_AUTOWIDTH
1070
     1
  0
MTEXT
  5
271
330
1F
100
AcDbEntity
  8
Text
 62
   156
370
     9
100
AcDbMText
 10
459.8614348793136
 20
649.6959265090213
 30
0.0
 40
1.0
 41
13.89
 46
0.0
 71
     7
 72
     1
  1
\fArial|b0|i0|c0|p0;FRP CORNER TRIM
 73
     1
 44
1.0
1001
CHIEFARC-LNWT
1070
    10
1001
CHIEFARC_RTFBINARY
1000

1001
CHIEFARC_SIMPLE_TEXT_BINARY
1000

1001
CHIEFARC-WIDTHEXPANDED
1070
     1
1001
CHIEFARC_AUTOHEIGHT
1070
     1
1001
CHIEFARC_AUTOWIDTH
1070
     1
  0
MTEXT
  5
272
330
1F
100
AcDbEntity
  8
Text
 62
   156
370
     9
100
AcDbMText
 10
459.8614348793136
 20
605.2072966493347
 30
0.0
 40
1.0
 41
9.83
 46
0.0
 71
     7
 72
     1
  1
\fArial|b0|i0|c0|p0;STEEL DOOR
 73
     1
 44
1.0
1001
CHIEFARC-LNWT
1070
    10
1001
CHIEFARC_RTFBINARY
1000

1001
CHIEFARC_SIMPLE_TEXT_BINARY
1000

1001
CHIEFARC-WIDTHEXPANDED
1070
     1
1001
CHIEFARC_AUTOHEIGHT
1070
     1
1001
CHIEFARC_AUTOWIDTH
1070
     1
  0
MTEXT
  5
273
330
1F
100
AcDbEntity
  8
Text
 62
   156
370
     9
100
AcDbMText
 10
459.7979269401513
 20
637.5140133347533
 30
0.0
 40
1.0
 41
27.80000000000001
 46
0.0
 71
     7
 72
     1
  1
\fArial|b0|i0|c0|p0;FIBERGLASS REINFORCED PANEL (FRP)
 73
     1
 44
1.0
1001
CHIEFARC-LNWT
1070
    10
1001
CHIEFARC_RTFBINARY
1000

1001
CHIEFARC_SIMPLE_TEXT_BINARY
1000

1001
CHIEFARC-WIDTHEXPANDED
1070
     1
1001
CHIEFARC_AUTOHEIGHT
1070
     1
1001
CHIEFARC_AUTOWIDTH
1070
     1
  0
MTEXT
  5
274
330
1F
100
AcDbEntity
  8
Text
 62
   156
370
     9
100
AcDbMText
 10
406.0
 20
574.4520670391062
 30
0.0
 40
2.0
 41
84.72000000000004
 46
0.0
 71
     7
 72
     1
  1
\fArial|b0|i0|c0|p0;ISF 07.01.26     INSOFAST - DOOR - CMU - INSET STEEL JAMB -
 73
     1
 44
1.0
1001
CHIEFARC-LNWT
1070
    10
1001
CHIEFARC_RTFBINARY
1000

1001
CHIEFARC_SIMPLE_TEXT_BINARY
1000

1001
CHIEFARC-WIDTHEXPANDED
1070
     1
1001
CHIEFARC_AUTOHEIGHT
1070
     1
1001
CHIEFARC_AUTOWIDTH
1070
     1
  0
MTEXT
  5
275
330
1F
100
AcDbEntity
  8
Text
 62
   156
370
     9
100
AcDbMText
 10
406.0
 20
570.8120670391061
 30
0.0
 40
2.0
 41
83.68000000000006
 46
0.0
 71
     7
 72
     1
  1
\fArial|b0|i0|c0|p0;                          FIBER REINFORCED PANEL (FRP) RETURN
 73
     1
 44
1.0
1001
CHIEFARC-LNWT
1070
    10
1001
CHIEFARC_RTFBINARY
1000

1001
CHIEFARC_SIMPLE_TEXT_BINARY
1000

1001
CHIEFARC_AUTOHEIGHT
1070
     1
1001
CHIEFARC_AUTOWIDTH
1070
     1
  0
INSERT
  5
281
330
1F
100
AcDbEntity
  8
_DEFAULT_CAD_LAYER
  6
Continuous
370
     0
100
AcDbBlockReference
  2
block34_1
 10
460.9436364444826
 20
613.9349033737022
 30
0.0
 41
0.8204288768826176
 42
0.7104276958693847
1001
CHIEFARC-LNWT
1070
     0
  0
LINE
  5
282
330
1F
100
AcDbEntity
  8
Text
100
AcDbLine
 10
427.1926474309153
 20
626.1463032231741
 30
0.0
 11
427.8596111502917
 21
626.93221632081
 31
0.0
  0
LINE
  5
283
330
1F
100
AcDbEntity
  8
Text
100
AcDbLine
 10
427.1926474309153
 20
626.1463032231741
 30
0.0
 11
428.1509862880761
 21
626.5258906766757
 31
0.0
  0
LWPOLYLINE
  5
284
330
1F
100
AcDbEntity
  8
Text
100
AcDbPolyline
 90
        3
 70
     0
 43
0.0
 10
459.3217869350912
 20
645.9641062463121
 10
454.8287787766961
 20
645.9641062463121
 10
427.1926474309153
 20
626.1463032231741
  0
LINE
  5
285
330
1F
100
AcDbEntity
  8
Text
100
AcDbLine
 10
437.8366669547372
 20
619.0676817162712
 30
0.0
 11
438.7582760895513
 21
618.6060145172768
 31
0.0
  0
LINE
  5
286
330
1F
100
AcDbEntity
  8
Text
100
AcDbLine
 10
437.8366669547372
 20
619.0676817162712
 30
0.0
 11
438.4325963329875
 21
618.2266298890107
 31
0.0
  0
LWPOLYLINE
  5
287
330
1F
100
AcDbEntity
  8
Text
100
AcDbPolyline
 90
        3
 70
     0
 43
0.0
 10
459.2948536395661
 20
605.1735746810077
 10
454.0219241788275
 20
605.1735746810077
 10
437.8366669547372
 20
619.0676817162712
  0
LINE
  5
288
330
1F
100
AcDbEntity
  8
Text
100
AcDbLine
 10
427.7433977579414
 20
624.171298266522
 30
0.0
 11
428.4109416613259
 21
624.9567186234354
 31
0.0
  0
LINE
  5
289
330
1F
100
AcDbEntity
  8
Text
100
AcDbLine
 10
427.7433977579414
 20
624.171298266522
 30
0.0
 11
428.7020166641811
 21
624.5501779210293
 31
0.0
  0
LWPOLYLINE
  5
28A
330
1F
100
AcDbEntity
  8
Text
100
AcDbPolyline
 90
        3
 70
     0
 43
0.0
 10
459.2979269401513
 20
642.0992443432032
 10
452.7831288211351
 20
642.0992443432032
 10
427.7433977579414
 20
624.171298266522
  0
LINE
  5
28B
330
1F
100
AcDbEntity
  8
Text
100
AcDbLine
 10
449.0219902675371
 20
626.6136998475565
 30
0.0
 11
449.3881701640291
 21
627.5772413793054
 31
0.0
  0
LINE
  5
28C
330
1F
100
AcDbEntity
  8
Text
100
AcDbLine
 10
449.0219902675371
 20
626.6136998475565
 30
0.0
 11
449.7985214852649
 21
627.2915636007506
 31
0.0
  0
LWPOLYLINE
  5
28D
330
1F
100
AcDbEntity
  8
Text
100
AcDbPolyline
 90
        3
 70
     0
 43
0.0
 10
459.3217869350912
 20
634.0935431878011
 10
454.2292965897033
 20
634.0935431878011
 10
449.0219902675371
 20
626.6136998475565
  0
LINE
  5
28E
330
1F
100
AcDbEntity
  8
Text
100
AcDbLine
 10
451.1718399428736
 20
625.6608990363534
 30
0.0
 11
451.5032548114602
 21
626.6369442119881
 31
0.0
  0
LINE
  5
28F
330
1F
100
AcDbEntity
  8
Text
100
AcDbLine
 10
451.1718399428736
 20
625.6608990363534
 30
0.0
 11
451.9235802036899
 21
626.3661554296373
 31
0.0
  0
LWPOLYLINE
  5
290
330
1F
100
AcDbEntity
  8
Text
100
AcDbPolyline
 90
        3
 70
     0
 43
0.0
 10
459.3992212819279
 20
630.6739556439848
 10
454.4014318726759
 20
630.6739556439848
 10
451.1718399428736
 20
625.6608990363534
  0
LINE
  5
291
330
1F
100
AcDbEntity
  8
Text
100
AcDbLine
 10
448.8253456656672
 20
618.0255875694058
 30
0.0
 11
449.744524503756
 21
617.559100416732
 31
0.0
  0
LINE
  5
292
330
1F
100
AcDbEntity
  8
Text
100
AcDbLine
 10
448.8253456656672
 20
618.0255875694058
 30
0.0
 11
449.4168624509579
 21
617.1814265108871
 31
0.0
  0
LWPOLYLINE
  5
293
330
1F
100
AcDbEntity
  8
Text
100
AcDbPolyline
 90
        3
 70
     0
 43
0.0
 10
459.3703206468278
 20
612.3859913313513
 10
455.3257271423299
 20
612.3859913313513
 10
448.8253456656672
 20
618.0255875694058
  0
INSERT
  5
294
330
1F
100
AcDbEntity
  8
_DEFAULT_CAD_LAYER
100
AcDbBlockReference
  2
block34_1
 10
408.8866380302682
 20
613.9349033737022
 30
0.0
 41
-0.8204288768826176
 42
0.7104276958693847
  0
LINE
  5
295
330
1F
100
AcDbEntity
  8
Text
100
AcDbLine
 10
442.0561542088003
 20
618.8404526900745
 30
0.0
 11
442.9777633436144
 21
618.3787854910801
 31
0.0
  0
LINE
  5
296
330
1F
100
AcDbEntity
  8
Text
100
AcDbLine
 10
442.0561542088003
 20
618.8404526900745
 30
0.0
 11
442.6520835870506
 21
617.999400862814
 31
0.0
  0
LWPOLYLINE
  5
297
330
1F
100
AcDbEntity
  8
Text
100
AcDbPolyline
 90
        3
 70
     0
 43
0.0
 10
459.2948536395662
 20
608.5685313717375
 10
454.0219241788276
 20
608.5685313717375
 10
442.0561542088003
 20
618.8404526900745
  0
LINE
  5
298
330
1F
100
AcDbEntity
  8
Text
100
AcDbLine
 10
427.0764706687593
 20
627.9361014681598
 30
0.0
 11
427.7369983455678
 21
628.7274314803354
 31
0.0
  0
LINE
  5
299
330
1F
100
AcDbEntity
  8
Text
100
AcDbLine
 10
427.0764706687593
 20
627.9361014681598
 30
0.0
 11
428.0316798010847
 21
628.3234972780521
 31
0.0
  0
LWPOLYLINE
  5
29A
330
1F
100
AcDbEntity
  8
Text
100
AcDbPolyline
 90
        3
 70
     0
 43
0.0
 10
459.3217869350912
 20
649.9722045406944
 10
457.282428829322
 20
649.9722045406944
 10
427.0764706687593
 20
627.9361014681598
  0
LINE
  5
29B
330
1F
100
AcDbEntity
  8
Text
100
AcDbLine
 10
446.594166710969
 20
627.9361014681598
 30
0.0
 11
447.008712903767
 21
628.8798447881555
 31
0.0
  0
LINE
  5
29C
330
1F
100
AcDbEntity
  8
Text
100
AcDbLine
 10
446.594166710969
 20
627.9361014681598
 30
0.0
 11
447.4040572669653
 21
628.5737356009571
 31
0.0
  0
LWPOLYLINE
  5
29D
330
1F
100
AcDbEntity
  8
Text
100
AcDbPolyline
 90
        3
 70
     0
 43
0.0
 10
459.2979269401513
 20
637.7639794387751
 10
454.2037446321877
 20
637.7639794387751
 10
446.594166710969
 20
627.9361014681598
  0
ENDSEC
  0
SECTION
  2
OBJECTS
  0
DICTIONARY
  5
C
330
0
100
AcDbDictionary
281
     1
  3
ACAD_GROUP
350
D
  3
ACAD_LAYOUT
350
1A
  3
ACAD_MLEADERSTYLE
350
29F
  3
ACAD_MLINESTYLE
350
17
  3
ACAD_PLOTSETTINGS
350
19
  3
ACAD_PLOTSTYLENAME
350
E
  3
ACAD_TABLESTYLE
350
29E
  3
ACAD_VISUALSTYLE
350
2A
  0
DICTIONARY
  5
D
102
{ACAD_REACTORS
330
C
102
}
330
C
100
AcDbDictionary
281
     1
  0
DICTIONARY
  5
1A
102
{ACAD_REACTORS
330
C
102
}
330
C
100
AcDbDictionary
281
     1
  3
Layout1
350
1E
  3
Layout2
350
26
  3
Model
350
22
  0
DICTIONARY
  5
29F
102
{ACAD_REACTORS
330
C
102
}
330
C
100
AcDbDictionary
281
     1
  0
DICTIONARY
  5
17
102
{ACAD_REACTORS
330
C
102
}
330
C
100
AcDbDictionary
281
     1
  3
Standard
350
18
  0
DICTIONARY
  5
19
102
{ACAD_REACTORS
330
C
102
}
330
C
100
AcDbDictionary
281
     1
  0
ACDBDICTIONARYWDFLT
  5
E
102
{ACAD_REACTORS
330
C
102
}
330
C
100
AcDbDictionary
281
     1
  3
Normal
350
F
100
AcDbDictionaryWithDefault
340
F
  0
DICTIONARY
  5
29E
102
{ACAD_REACTORS
330
C
102
}
330
C
100
AcDbDictionary
281
     1
  0
DICTIONARY
  5
2A
102
{ACAD_REACTORS
330
C
102
}
330
C
100
AcDbDictionary
281
     1
  3
2dWireframe
350
2F
  3
3D Hidden
350
31
  3
3dWireframe
350
30
  3
Basic
350
32
  3
Brighten
350
36
  3
ColorChange
350
3A
  3
Conceptual
350
34
  3
Dim
350
35
  3
Facepattern
350
39
  3
Flat
350
2B
  3
FlatWithEdges
350
2C
  3
Gouraud
350
2D
  3
GouraudWithEdges
350
2E
  3
Linepattern
350
38
  3
Realistic
350
33
  3
Thicken
350
37
  0
LAYOUT
  5
1E
102
{ACAD_REACTORS
330
1A
102
}
330
1A
100
AcDbPlotSettings
  1

  2
none_device
  4

  6

 40
0.0
 41
0.0
 42
0.0
 43
0.0
 44
0.0
 45
0.0
 46
0.0
 47
0.0
 48
0.0
 49
0.0
140
0.0
141
0.0
142
1.0
143
1.0
 70
   688
 72
     0
 73
     0
 74
     5
  7

 75
    16
 76
     0
 77
     2
 78
   300
147
1.0
148
0.0
149
0.0
100
AcDbLayout
  1
Layout1
 70
     1
 71
     1
 10
0.0
 20
0.0
 11
12.0
 21
9.0
 12
0.0
 22
0.0
 32
0.0
 14
1.000000000000000E+20
 24
1.000000000000000E+20
 34
1.000000000000000E+20
 15
-1.000000000000000E+20
 25
-1.000000000000000E+20
 35
-1.000000000000000E+20
146
0.0
 13
0.0
 23
0.0
 33
0.0
 16
1.0
 26
0.0
 36
0.0
 17
0.0
 27
1.0
 37
0.0
 76
     0
330
1B
  0
LAYOUT
  5
26
102
{ACAD_REACTORS
330
1A
102
}
330
1A
100
AcDbPlotSettings
  1

  2
none_device
  4

  6

 40
0.0
 41
0.0
 42
0.0
 43
0.0
 44
0.0
 45
0.0
 46
0.0
 47
0.0
 48
0.0
 49
0.0
140
0.0
141
0.0
142
1.0
143
1.0
 70
   688
 72
     0
 73
     0
 74
     5
  7

 75
    16
 76
     0
 77
     2
 78
   300
147
1.0
148
0.0
149
0.0
100
AcDbLayout
  1
Layout2
 70
     1
 71
     2
 10
0.0
 20
0.0
 11
0.0
 21
0.0
 12
0.0
 22
0.0
 32
0.0
 14
0.0
 24
0.0
 34
0.0
 15
0.0
 25
0.0
 35
0.0
146
0.0
 13
0.0
 23
0.0
 33
0.0
 16
1.0
 26
0.0
 36
0.0
 17
0.0
 27
1.0
 37
0.0
 76
     0
330
23
  0
LAYOUT
  5
22
102
{ACAD_REACTORS
330
1A
102
}
330
1A
100
AcDbPlotSettings
  1

  2
none_device
  4

  6

 40
0.0
 41
0.0
 42
0.0
 43
0.0
 44
0.0
 45
0.0
 46
0.0
 47
0.0
 48
0.0
 49
0.0
140
0.0
141
0.0
142
1.0
143
1.0
 70
  1712
 72
     0
 73
     0
 74
     0
  7

 75
     0
 76
     0
 77
     2
 78
   300
147
1.0
148
0.0
149
0.0
100
AcDbLayout
  1
Model
 70
     1
 71
     0
 10
0.0
 20
0.0
 11
12.0
 21
9.0
 12
0.0
 22
0.0
 32
0.0
 14
0.0
 24
1.0
 34
0.0
 15
1.0
 25
0.0
 35
0.0
146
0.0
 13
0.0
 23
0.0
 33
0.0
 16
1.0
 26
0.0
 36
0.0
 17
0.0
 27
1.0
 37
0.0
 76
     0
330
1F
331
29
  0
MLINESTYLE
  5
18
102
{ACAD_REACTORS
330
17
102
}
330
17
100
AcDbMlineStyle
  2
Standard
 70
     0
  3

 62
   256
 51
90.0
 52
90.0
 71
     2
 49
0.5
 62
   256
  6
BYLAYER
 49
-0.5
 62
   256
  6
BYLAYER
  0
ACDBPLACEHOLDER
  5
F
102
{ACAD_REACTORS
330
E
102
}
330
E
  0
VISUALSTYLE
  5
2F
102
{ACAD_REACTORS
330
2A
102
}
330
2A
100
AcDbVisualStyle
  2
2dWireframe
 70
     4
 71
     0
 72
     2
 73
     0
 90
        0
 40
-0.6
 41
-30.0
 62
     5
 63
     7
421
 16777215
 74
     1
 91
        4
 64
     7
 65
   257
 75
     1
175
     1
 42
1.0
 92
        0
 66
   257
 43
1.0
 76
     1
 77
     6
 78
     2
 67
     7
 79
     5
170
     0
171
     0
290
     0
174
     0
 93
        1
 44
0.0
173
     0
291
     0
 45
0.0
  0
VISUALSTYLE
  5
31
102
{ACAD_REACTORS
330
2A
102
}
330
2A
100
AcDbVisualStyle
  2
3D Hidden
 70
     6
 71
     1
 72
     2
 73
     2
 90
        0
 40
-0.6
 41
-30.0
 62
     5
 63
     7
421
 16777215
 74
     2
 91
        2
 64
     7
 65
   257
 75
     2
175
     1
 42
40.0
 92
        0
 66
   257
 43
1.0
 76
     1
 77
     6
 78
     2
 67
     7
 79
     3
170
     0
171
     0
290
     0
174
     0
 93
        1
 44
0.0
173
     0
291
     0
 45
0.0
  0
VISUALSTYLE
  5
30
102
{ACAD_REACTORS
330
2A
102
}
330
2A
100
AcDbVisualStyle
  2
3dWireframe
 70
     5
 71
     0
 72
     2
 73
     0
 90
        0
 40
-0.6
 41
-30.0
 62
     5
 63
     7
421
 16777215
 74
     1
 91
        4
 64
     7
 65
   257
 75
     1
175
     1
 42
1.0
 92
        0
 66
   257
 43
1.0
 76
     1
 77
     6
 78
     2
 67
     7
 79
     5
170
     0
171
     0
290
     0
174
     0
 93
        1
 44
0.0
173
     0
291
     0
 45
0.0
  0
VISUALSTYLE
  5
32
102
{ACAD_REACTORS
330
2A
102
}
330
2A
100
AcDbVisualStyle
  2
Basic
 70
     7
 71
     1
 72
     0
 73
     1
 90
        0
 40
-0.6
 41
-30.0
 62
     5
 63
     7
421
 16777215
 74
     0
 91
        4
 64
     7
 65
   257
 75
     1
175
     1
 42
1.0
 92
        8
 66
     7
 43
1.0
 76
     1
 77
     6
 78
     2
 67
     7
 79
     5
170
     0
171
     0
290
     0
174
     0
 93
        1
 44
0.0
173
     0
291
     1
 45
0.0
  0
VISUALSTYLE
  5
36
102
{ACAD_REACTORS
330
2A
102
}
330
2A
100
AcDbVisualStyle
  2
Brighten
 70
    12
 71
     2
 72
     2
 73
     0
 90
        0
 40
-0.6
 41
-30.0
 62
     5
 63
     7
421
 16777215
 74
     1
 91
        4
 64
     7
 65
   257
 75
     1
175
     1
 42
1.0
 92
        8
 66
     7
 43
1.0
 76
     1
 77
     6
 78
     2
 67
     7
 79
     5
170
     0
171
     0
290
     0
174
     0
 93
        1
 44
50.0
173
     0
291
     1
 45
0.0
  0
VISUALSTYLE
  5
3A
102
{ACAD_REACTORS
330
2A
102
}
330
2A
100
AcDbVisualStyle
  2
ColorChange
 70
    16
 71
     2
 72
     2
 73
     3
 90
        0
 40
-0.6
 41
-30.0
 62
     5
 63
     8
421
  8421504
 74
     1
 91
        4
 64
     7
 65
   257
 75
     1
175
     1
 42
1.0
 92
        8
 66
     8
424
  8421504
 43
1.0
 76
     1
 77
     6
 78
     2
 67
     7
 79
     5
170
     0
171
     0
290
     0
174
     0
 93
        1
 44
0.0
173
     0
291
     1
 45
0.0
  0
VISUALSTYLE
  5
34
102
{ACAD_REACTORS
330
2A
102
}
330
2A
100
AcDbVisualStyle
  2
Conceptual
 70
     9
 71
     3
 72
     2
 73
     0
 90
        0
 40
-0.6
 41
-30.0
 62
     5
 63
     7
421
 16777215
 74
     2
 91
        2
 64
     7
 65
   257
 75
     1
175
     1
 42
40.0
 92
        8
 66
     7
 43
1.0
 76
     1
 77
     6
 78
     2
 67
     7
 79
     3
170
     0
171
     0
290
     0
174
     0
 93
        1
 44
0.0
173
     0
291
     0
 45
0.0
  0
VISUALSTYLE
  5
35
102
{ACAD_REACTORS
330
2A
102
}
330
2A
100
AcDbVisualStyle
  2
Dim
 70
    11
 71
     2
 72
     2
 73
     0
 90
        0
 40
-0.6
 41
-30.0
 62
     5
 63
     7
421
 16777215
 74
     1
 91
        4
 64
     7
 65
   257
 75
     1
175
     1
 42
1.0
 92
        8
 66
     7
 43
1.0
 76
     1
 77
     6
 78
     2
 67
     7
 79
     5
170
     0
171
     0
290
     0
174
     0
 93
        1
 44
-50.0
173
     0
291
     1
 45
0.0
  0
VISUALSTYLE
  5
39
102
{ACAD_REACTORS
330
2A
102
}
330
2A
100
AcDbVisualStyle
  2
Facepattern
 70
    15
 71
     2
 72
     2
 73
     0
 90
        0
 40
-0.6
 41
-30.0
 62
     5
 63
     7
421
 16777215
 74
     1
 91
        4
 64
     7
 65
   257
 75
     1
175
     1
 42
1.0
 92
        8
 66
     7
 43
1.0
 76
     1
 77
     6
 78
     2
 67
     7
 79
     5
170
     0
171
     0
290
     0
174
     0
 93
        1
 44
0.0
173
     0
291
     1
 45
0.0
  0
VISUALSTYLE
  5
2B
102
{ACAD_REACTORS
330
2A
102
}
330
2A
100
AcDbVisualStyle
  2
Flat
 70
     0
 71
     2
 72
     1
 73
     1
 90
        2
 40
-0.6
 41
30.0
 62
     5
 63
     7
421
 16777215
 74
     0
 91
        4
 64
     7
 65
   257
 75
     1
175
     1
 42
1.0
 92
        8
 66
     7
 43
1.0
 76
     1
 77
     6
 78
     2
 67
     7
 79
     5
170
     0
171
     0
290
     0
174
     0
 93
       13
 44
0.0
173
     0
291
     1
 45
0.0
  0
VISUALSTYLE
  5
2C
102
{ACAD_REACTORS
330
2A
102
}
330
2A
100
AcDbVisualStyle
  2
FlatWithEdges
 70
     1
 71
     2
 72
     1
 73
     1
 90
        2
 40
-0.6
 41
30.0
 62
     5
 63
     7
421
 16777215
 74
     1
 91
        4
 64
     7
 65
   257
 75
     1
175
     1
 42
1.0
 92
        0
 66
   257
 43
1.0
 76
     1
 77
     6
 78
     2
 67
     7
 79
     5
170
     0
171
     0
290
     0
174
     0
 93
       13
 44
0.0
173
     0
291
     1
 45
0.0
  0
VISUALSTYLE
  5
2D
102
{ACAD_REACTORS
330
2A
102
}
330
2A
100
AcDbVisualStyle
  2
Gouraud
 70
     2
 71
     2
 72
     2
 73
     1
 90
        2
 40
-0.6
 41
30.0
 62
     5
 63
     7
421
 16777215
 74
     0
 91
        4
 64
     7
 65
   257
 75
     1
175
     1
 42
1.0
 92
        0
 66
     7
 43
1.0
 76
     1
 77
     6
 78
     2
 67
     7
 79
     5
170
     0
171
     0
290
     0
174
     0
 93
       13
 44
0.0
173
     0
291
     1
 45
0.0
  0
VISUALSTYLE
  5
2E
102
{ACAD_REACTORS
330
2A
102
}
330
2A
100
AcDbVisualStyle
  2
GouraudWithEdges
 70
     3
 71
     2
 72
     2
 73
     1
 90
        2
 40
-0.6
 41
30.0
 62
     5
 63
     7
421
 16777215
 74
     1
 91
        4
 64
     7
 65
   257
 75
     1
175
     1
 42
1.0
 92
        0
 66
   257
 43
1.0
 76
     1
 77
     6
 78
     2
 67
     7
 79
     5
170
     0
171
     0
290
     0
174
     0
 93
       13
 44
0.0
173
     0
291
     1
 45
0.0
  0
VISUALSTYLE
  5
38
102
{ACAD_REACTORS
330
2A
102
}
330
2A
100
AcDbVisualStyle
  2
Linepattern
 70
    14
 71
     2
 72
     2
 73
     0
 90
        0
 40
-0.6
 41
-30.0
 62
     5
 63
     7
421
 16777215
 74
     1
 91
        4
 64
     7
 65
   257
 75
     7
175
     7
 42
1.0
 92
        8
 66
     7
 43
1.0
 76
     1
 77
     6
 78
     2
 67
     7
 79
     5
170
     0
171
     0
290
     0
174
     0
 93
        1
 44
0.0
173
     0
291
     1
 45
0.0
  0
VISUALSTYLE
  5
33
102
{ACAD_REACTORS
330
2A
102
}
330
2A
100
AcDbVisualStyle
  2
Realistic
 70
     8
 71
     2
 72
     2
 73
     0
 90
        0
 40
-0.6
 41
-30.0
 62
     5
 63
     7
421
 16777215
 74
     1
 91
        0
 64
     7
 65
   257
 75
     1
175
     1
 42
1.0
 92
        8
 66
     8
424
  7895160
 43
1.0
 76
     1
 77
     6
 78
     2
 67
     7
 79
     5
170
     0
171
     0
290
     0
174
     0
 93
       13
 44
0.0
173
     0
291
     0
 45
0.0
  0
VISUALSTYLE
  5
37
102
{ACAD_REACTORS
330
2A
102
}
330
2A
100
AcDbVisualStyle
  2
Thicken
 70
    13
 71
     2
 72
     2
 73
     0
 90
        0
 40
-0.6
 41
-30.0
 62
     5
 63
     7
421
 16777215
 74
     1
 91
        4
 64
     7
 65
   257
 75
     1
175
     1
 42
1.0
 92
       12
 66
     7
 43
1.0
 76
     1
 77
     6
 78
     2
 67
     7
 79
     5
170
     0
171
     0
290
     0
174
     0
 93
        1
 44
0.0
173
     0
291
     1
 45
0.0
  0
ENDSEC
  0
EOF
